PrimaNota.ru - самый крупный в мире бесплатный архив песенных текстов, аккордов, табулатур и нот


Misc Television - The 128000 Question - таба, видео

Регистрация Запомнить меня
Войти через:  Facebook Google Twitter Vk Yandex Mail.ru

Misc Television - The 128000 Question - таба, видео

Печатать
Просмотров: 68
-------------------------------------------------------------------------------
Theme to THE $128,000 QUESTION - Misc. Television
-------------------------------------------------------------------------------
Tabbed by: Douglas Crawshaw Jr.
E-mail: douglas.crawshaw@gmail.com

The melody structure is the same as the theme to the $64,000 Question, 
but I post this as the theme to the $128,000 Question because that theme
was in the key of F, whereas the theme to the $64,000 Question was in 
the key of Ab.

e|------------------------------------------------------0-1------------------|
B|1------31--------------31-------1-----143-------1-13-3---------------------|
G|--2--02---30----3-0--03---2-------2--2----30-023---------------------------|
D|----3---------------2------3--------3--------------------------------------|
A|---------------------------------------------------------------------------|
E|---------------------------------------------------------------------------|

Добавлено: 04.07.2015
Другие материалы по этой песне:
  • Аккорды и текст

Страница создана 04.07.2015
http://primanota.ru/misc-television/128000-question-chords.htm
Привет, Гость.
Предлагаем пройти революционный курс по гитаре.
Подарок от PrimaNota.Ru, забирай!