PrimaNota.ru - самый крупный в мире бесплатный архив песенных текстов, аккордов, табулатур и нот


Misc Television - Corner Gas Theme - Not A Lot Going On - таба, видео

Регистрация Запомнить меня
Войти через:  Facebook Google Twitter Vk Yandex Mail.ru

Misc Television - Corner Gas Theme - Not A Lot Going On - таба, видео

Печатать
Просмотров: 116
Song: Not a Lot Goin' On (Corner Gas Opening Theme)
Band: Northey Valenzuela (Part Odds, Part Gin Blossoms)
Album:Northey Valenzuela
Tabbed/Chorded By: ultimatelefty

Alright so I know that this is coming about 11 years late, but I really figured this 
would have made the internet by now! With the Corner Gas movie out now and all, I
rediscovered my love for this amazing show, and started fiddling around trying to 
figure out the theme. I wonder how many people by now have already figured it out.
Anyways, this is the full song by Northey Valenzuela, so if you want to just play the
redone Corner Gas intro, its the same chords and whatnot, but the words are a bit
different. If you're a big enough fan of the show though you probably already know
the lyrics! Anyways, for whoever views this, I hope this helps, and hopefully you 
have fun playing it! As always, please like, comment, and enjoy!!



Intro: E  A  E  A

E                      A
You can watch your dog run away,
B
and out here it can take 3 days
C#m
I've heard every joke 
A                        B
I've heard every word you say

                            E         A
You think there's not a lot goin' on 
                     B
but look closer baby you're so wrong

  E                         A
I roll my eyes back into my happy place 
    B
I'm always going to need this sense of space 
       E                   A
In the amber waves under a rolling cloud 
        B
I can't hear what you say 'cause you're talking so loud 
C#m                      A
How many times you gonna get me wrong? 
B
Yeah yeah yeah

                            E        A
You think there's not a lot goin' on 
                     B
but look closer baby you're so wrong 
                       E             A
And that's why you can stay so long 
                        B
Where there's not a lot goin' on

                G#m                C#m
You could use a glass half full of something strong 
   A                             B
To help you see the emperor with nothing on 
G#m                     C#m
Double your dose if its over the counter ' 
             A
cause you're sad 
               B                     E
Yeah yeah yeah yeah yeah yeah out of towner

Solo chords:

E A B E A B C#m A B

e|--------------------------------------------------------0-0---0--0-------------|
B|-5---5-5-5p4h5p4-5/7-7\5-5\4-4\2-2p0------------------------0------0-5/7-7-7-7-|
G|--------------------------------------/4-4\2-2\1-1/2-2-------------------------|
D|-------------------------------------------------------------------------------|
A|-------------------------------------------------------------------------------|
E|-------------------------------------------------------------------------------|

e|---------------------------------------------4/7~-9p7------------------------------|
B|-5-5\4-4\2-2p0---------------------------5-5----------9b-9--7-7---------7---7~-----|
G|----------------4-4\2-2\1-1/2-2/4-4/6~~\--------------9b-9------9-6-9-9---9----9-6-|
D|-----------------------------------------------------------------------------------|
A|-----------------------------------------------------------------------------------|
E|-----------------------------------------------------------------------------------|

e|---------------------------------------------12----12/14~~~-|
B|-5-4/5/7-5/7/9-7/9/10-9/10/12-10/12/14-12h14----14----------|
G|------------------------------------------------------------|
D|------------------------------------------------------------|
A|------------------------------------------------------------|
E|------------------------------------------------------------|


F#                          B         
With the rain you could get lightning on you 
C#                          F#
Strikes twice, you better believe it 
                          B
Under a sky that's always wrapped around you 
C#
Good luck, you know you're gonna need it

(Repeat above verse 3x, after second time "Not a lot goin on" can be heard within the verse)

Then play F# B C# to "There's not a lot goin on, you think there's not a lot goin on!"
Then strum F# for a while and end on F#
Добавлено: 04.07.2015
Другие материалы по этой песне:
  • Аккорды и текст

Страница создана 04.07.2015
http://primanota.ru/misc-television/corner-gas-theme-not-a-lot-going-on-chords.htm
Привет, Гость.
Предлагаем пройти революционный курс по гитаре.
Подарок от PrimaNota.Ru, забирай!