PrimaNota.ru - самый крупный в мире бесплатный архив песенных текстов, аккордов, табулатур и нот


Misc Television - Black Sails Theme - таба, видео

Регистрация Запомнить меня
Войти через:  Facebook Google Twitter Vk Yandex Mail.ru

Misc Television - Black Sails Theme - таба, видео

Печатать
Просмотров: 161
-------------------------------------------------------------------------------
                             Black Sails - Misc. Televison
-------------------------------------------------------------------------------
Tabbed by:
E-mail: carsonvalente@live.com

Tuning: Standard

e|---------------------------------------------------------------------------|
B|----------11------11--13---------------------------------------------------|
G|--10--12------12----------12--10--12-----------12----------12------15--12--|
D|---------------------------------------13--15------13--15------15----------|
A|---------------------------------------------------------------------------|
E|---------------------------------------------------------------------------|

e|---------------------------------------------------------------------------|
B|----------11------11--13----------13------11--13------11--13------16--13---|
G|--10--12------12----------12--10------12----------12----------12-----------|
D|---------------------------------------------------------------------------|
A|---------------------------------------------------------------------------|
E|---------------------------------------------------------------------------|

Добавлено: 04.07.2015
Другие материалы по этой песне:
  • Аккорды и текст

Страница создана 04.07.2015
http://primanota.ru/misc-television/black-sails-theme-chords.htm
Привет, Гость.
Предлагаем пройти революционный курс по гитаре.
Подарок от PrimaNota.Ru, забирай!