PrimaNota.ru - самый крупный в мире бесплатный архив песенных текстов, аккордов, табулатур и нот


Misc Soundtrack - Risen - The Harbor City - таба, видео

Регистрация Запомнить меня
Войти через:  Facebook Google Twitter Vk Yandex Mail.ru

Misc Soundtrack - Risen - The Harbor City - таба, видео

Печатать
Просмотров: 337
The Harbor City (Guitar)
Risen Soundtrack
---> composed by Kai Rosenkranz
---> tab by Imperfektionist

I suspect them to have recorded two separate guitar tracks,
so I had to ignore some slides. Enjoy nontheless!

Footnotes
(*) Actually played by piano
(**) Not quite sure here, but it sounds good

     
E||--------------5-----------|--3--------------------|
B||--------5--6-----------6--|--------3--------------|
G||--7-----------------------|--4--------------------|
D||-----7--------------7-----|-----------7--9--------|
A||--5--------------7--------|-----5-----------------|
E||--------------5-----------|--3--------------------|


--------------8--------7--|--5-----5-----------------|
--------5--6--------------|-----------------------3--|
--7-----------------------|--------------------4-----|
-----7--------------7-----|--------------5--7--------|
--5--------------7--------|-----3-----5--------------|
--------------5-----------|--1-----3-----------------|

  
--5--3--7--5--7s-8--7-----3--|--5-----5-----------------|
-----------------------------|-----------------------3--|
-----------------------------|--------------------4-----|
-----------------------------|--------------5--7--------|
-----------------------------|-----3-----5--------------|
-----------------------------|--1-----3-----------------|


                                                         Dm       Am                        
--5-----5----------3---5-|--5--------------------5--|--/10----------------|
-------------------------|--------------------------|---------------------|
--------------5----------|--------------------7-----|---------------------|
-----3-----5-------------|-----------------7--------|---------------------|
--1-----3----------------|--5-----5--7--8-----------|---------------------|
-------------------------|-----5--------------------|---------------------|


  G                   Dm      Am         F  G                                                 
-------------------|-------------------|-------------------|-------------------|
-------------------|-------------------|-------------------|-------------------|
-------------------|-------------------|-------------------|-------------------|
-------------------|-------------------|-------------------|-------------------|
-------------------|-------------------|-------------------|-------------------|
-------------------|-------------------|-------------------|-------------------|

        
                                (*)
-----------10------------10h--|--10-----------------|
--------8-------------8-------|---------------------|
-----7-------------7----------|---------------------|
------------------------------|---------------------|
--8------------10-------------|---------------------|
------------------------------|---------------------|


                (**)
---------------10---------------|-----------------3--5--|
--------------------------------|-----------------------|
------------7-------------------|-----------------------|
------------8----------10--12h--|--12-------------------|
-----8--10---------10-----------|-----------------------|
--6-------------8---------------|-----------------------|


--6-----------5--------3--|-------------------3--5--|
--3-----------------6-----|-------------------------|
-----------------5--------|-------------------------|
--------5-----3-----------|--------5--7--8----------|
-----5-----5--------------|-----5-------------------|
--3-----------------------|--3----------------------|

      
--6-----------8--------------|-----------------------|
--3------------------10p--8--|-----------------------|
-----------3-----------------|-----------------------|
--------5--------10----------|--------5--7--8--------|
-----5--------8--------------|-----5-----------------|
--3--------------------------|--3--------------------|

 
--------------5-----------|-----------------------|--------------5-----------|
--6-----------------6-----|--6--------3--5--------|--6-----------------6-----|
--------7-----------------|--------3--------------|--------7-----------------|
-----7-----7-----7-----7--|-----------------------|-----7-----7-----7-----7--|
--5-----------------------|-----5-----------------|--5-----------------------|
--------------------------|--3--------------------|--------------------------|


-----------------------|--5-----------6-----10----|
--6-----------5--------|-----------------6--------|
-----------------------|--------3--5--------------|
--------5--7--8--------|-----3--------------------|
-----5-----------------|--1-----------------------|
--3--------------------|--------------------------|

  
--10---------10---8------------|--------------6-----10----|
----------------------------8--|-----------6--------------|
------7--10--------------9-----|--------7--------7--------|
---------------------10--------|--------------8-----------|
-----------------10------------|-----8--------------------|
---8---------------------------|--6-----------------------|

     
--10-------------8--------|--10--------------------||
--------------------------|------------------------||
--------------9-----------|------------------------||
----------10--------------|--------------12--------||
------10------------------|--------12--------------||
---8----------------------|--10--------------------||
Добавлено: 08.12.2013
Другие материалы по этой песне:
  • Аккорды и текст

Страница создана 08.12.2013
http://primanota.ru/misc-soundtrack/risen-the-harbor-city-chords.htm
Привет, Гость.
Предлагаем пройти революционный курс по гитаре.
Подарок от PrimaNota.Ru, забирай!