PrimaNota.ru - самый крупный в мире бесплатный архив песенных текстов, аккордов, табулатур и нот


Misc Soundtrack - Yu-gi-oh Gx Theme - таба, видео

Регистрация Запомнить меня
Войти через:  Facebook Google Twitter Vk Yandex Mail.ru

Misc Soundtrack - Yu-gi-oh Gx Theme - таба, видео

Печатать
Просмотров: 126
-------------------------------------------------------------------------------
                             Game On! - Yu-Gi-Oh GX
-------------------------------------------------------------------------------
Tabbed by: BassmanBrady13
E-mail: brady.sheppard@hotmail.com

Tuning: Standard (E A D G)

Intro:

(0:02)
G|---------------------------------| x2
D|---------------------------------|
A|33333333--------55555555---------|
E|--------33333333--------11111111-|


Verse:

(0:13)
G|---------------------------------------------------------------------------------|
D|---------------------------------------------------------------------------------|
A|------------------33333333----------------------------2\77777777-88888888--------|
E|11111111-33333333----------55555555-11111111-33333333----------------------------|


Pre-Chorus

(0:24)
G|----------------------------------------------------------------------------------|
D|----------------------------------------------------------------------------------|
A|------------------3333-2222-0000--------------------------------------------------|
E|11111111-33333333----------------3333-11111111-33333333-8/0-----------------------|


Chorus:

(0:34)
G|----------------------------------------------------------------------------------|
D|----------------------------------------------------------------------------------|
A|-33333333----------------------------33333333----------55555555-------------------|
E|----------33333333-00000000-11111111----------33333333----------11111111----------|


Guitar Solo:

(0:45)
G|----------------------------------------------------------------------------------|
D|----------------------------------------------------------------------------------|
A|------------------3333-2222-0000------------------------2\77777777-88888888-------|
E|11111111-33333333----------------3333-11111111-33333333---------------------1/8\1-|


Chorus:

(0:57)
G|---------------------------------| x3
D|---------------------------------|
A|33333333--------55555555---------|
E|--------33333333--------11111111-|


Verse:

(1:13)
G|---------------------------------------------------------------------------------|
D|---------------------------------------------------------------------------------|
A|------------------33333333----------------------------2\77777777-88888888--------|
E|11111111-33333333----------55555555-11111111-33333333----------------------------|


Pre-Chorus:

(1:23)
G|----------------------------------------------------------------------------------|
D|----------------------------------------------------------------------------------|
A|------------------3333-2222-0000--------------------------------------------------|
E|11111111-33333333----------------3333-11111111-33333333-8/0-----------------------|


Chorus:

(1:34)
G|----------------------------------------------------------------------------------|
D|----------------------------------------------------------------------------------|
A|-33333333----------------------------33333333----------55555555-------------------|
E|----------33333333-00000000-11111111----------33333333----------11111111----------|


Guitar Solo:

(1:44)
G|----------------------------------------------------------------------------------|
D|----------------------------------------------------------------------------------|
A|------------------3333-2222-0000------------------------2\77777777-88888888-------|
E|11111111-33333333----------------3333-11111111-33333333---------------------1/8\1-|


Chorus:

(1:56)
G|---------------------------------| 
D|---------------------------------|
A|33333333--------55555555---------|
E|--------33333333--------11111111-|

(2:04)
G|----------------------------------------------------------------------------------|
D|----------------------------------------------------------------------------------|
A|-33333333----------------------------33333333----------55555555-------------------|
E|----------33333333-00000000-11111111----------33333333----------11111111----------|


Guitar Solo:

(2:15)
G|----------------------------------------------------------------------------------|
D|----------------------------------------------------------------------------------|
A|------------------3333-2222-0000------------------------2\77777777-88888888-------|
E|11111111-33333333----------------3333-11111111-33333333---------------------1/8\1-|


Ending:

(2:27)
G|----------------------------------------------------------------------------------|
D|----------------------------------------------------------------------------------|
A|33333333----------55555555----------33333333----------3---------------------------|
E|---------33333333----------11111111----------33333333-----------------------------|


| /  slide up
| \  slide down
| h  hammer-on
| p  pull-off
| ~  vibrato
| +  harmonic
| x  Mute note
===============================================================================
Добавлено: 24.12.2013
Другие материалы по этой песне:
  • Аккорды и текст

Страница создана 24.12.2013
http://primanota.ru/misc-soundtrack/yu-gi-oh-gx-theme-chords.htm
Привет, Гость.
Предлагаем пройти революционный курс по гитаре.
Подарок от PrimaNota.Ru, забирай!