PrimaNota.ru - самый крупный в мире бесплатный архив песенных текстов, аккордов, табулатур и нот


Misc Soundtrack - Abethepsycho - Purity Of Darkness - таба

Регистрация Запомнить меня
Войти через:  Facebook Google Twitter Vk Yandex Mail.ru

Misc Soundtrack - Abethepsycho - Purity Of Darkness - таба

Печатать
Просмотров: 100
The Tuning is DAFCAd
Strum DDDUUDUDDU Que is ^. Last chord Que is *
         ^^^^  on last up stroke of * all is open.
        (Here) put finger on 3rd fret on C string on *

D------------------------------------------------------------------------|
A------------------------------------------------------------------------|
F------------------------------------------------------------------------|
C---5----5-5/4----4-4/2----2-2/1----1/2/4-4/5-5----5p4-4---4p2-2---2p1-1-|
A------------------------------------------------------------------------|
D------------------------------------------------------------------------|

D---------------------------------------------------|
A---------------------------------------------------|
F----------------------------0--0--0--0--2--2--2--2-|
C----5--5--4--4--2--2--1--1--5--5--4--4--2--2--1--1-|
A---5--5--3--3--1--1--0--0--5--5--3--3--1--1--0--0--|
D--5--5--3--3--1--1--0--0--5--5--3--3--1--1--0--0---|

                             (^ ^ ^ *)X2
D----0------0------0------0--0-0-0-0-|
A----0------0------0------0--0-0-0-0-|
F--0-0----0-0----2-2----2-2--0-0-2-2-|
C--5-5----4-4----2-2----1-1--5/4/2-1-|
A-5--5---3--3---1--1---0--0--5/3/1p0-|
D5---5--3---3--1---1--0---0--5/3/1p0-|

  second guitar keep doing the strumming
  D--------------------------------------------|
  A--------------------------------------------|
  F----0---0-----0---0-----2---2-----2--3--2---|
  C---5---5-5---4---4-4---2---2-2---1--1-1--1--|
  A--5---5---5-3---3---3-1---1---1-0--0---0--0-|
  D-5---5-----3---3-----1---1-----0------------|

  D--------------------------------------------------------|
  A--------------------------------------------------------|
  F----0---0-----0---0-----2---2-----2-3-2-0---------------|
  C---5---5-5---4---4-4---2---2-2---1-------2-1------------|
  A--5---5---5-3---3---3-1---1---1-0-----------5-3-1-0h1p0-|
  D-5---5-----3---3-----1---1-----0------------------------|

stop strumming
D-------------------------------5-|
A-----------------------------0-0-|
F------------------2--------0---0-|
C--5--5--4--4--2--1-------5-----5-|
A-5--5--3--3--1--0------5-------5-|
D5--5--3--3--1--0-----5---------5-|

Please reply on its difficulty, how well i wrote the tabs, and how good the
song is. It's the first song i wrote, and is going to be used in a game me
and my friends are making, also i didn't name the song.
Добавлено: 24.11.2013
Другие материалы по этой песне:
  • Аккорды и текст

Страница создана 24.11.2013
http://primanota.ru/misc-soundtrack/abethepsycho-purity-of-darkness-chords.htm
Привет, Гость.
Предлагаем пройти революционный курс по гитаре.
Подарок от PrimaNota.Ru, забирай!