PrimaNota.ru - самый крупный в мире бесплатный архив песенных текстов, аккордов, табулатур и нот


Misc Soundtrack - Master And Commander - Ending Song - таба, видео

Регистрация Запомнить меня
Войти через:  Facebook Google Twitter Vk Yandex Mail.ru

Misc Soundtrack - Master And Commander - Ending Song - таба, видео

Печатать
Просмотров: 155
Уроки эстрадного вокала в Санкт-Петербурге
First Part Chords: [G (4X), C (3X), D (3X), G (1X)] (3X) (Play in order)

s=slide ((3s5 is optional)(1s3 is not optional))

E------------------------------------------------------------------------------|
B---3-5-3-3-0---------1-3-3s5-3-1--1-0-1-3-3s5-3-1-0--0-1-0------1s3-----------|
G---------------2-0-------------------------------------------2-0------2-------|
D------------------------------------------------------------------------------|
A------------------------------------------------------------------------------|
E------------------------------------------------------------------------------|

E----------------------------------------------------------------------------|
B---3-5-3-3-0-1-3-1----0-----------------------------------------------------|
G--------------------2----0--------------------------------------------------|
D----------------------------------------------------------------------------|
A----------------------------------------------------------------------------|
E----------------------------------------------------------------------------|

Working on the rest. Thank you.
Добавлено: 28.09.2013
Другие материалы по этой песне:
  • Аккорды и текст

Страница создана 28.09.2013
http://primanota.ru/misc-soundtrack/master-and-commander-ending-song-chords.htm
Привет, Гость.
Предлагаем пройти революционный курс по гитаре.
Подарок от PrimaNota.Ru, забирай!