PrimaNota.ru - самый крупный в мире бесплатный архив песенных текстов, аккордов, табулатур и нот


Misc Soundtrack - Parks And Recreation Theme - таба, видео

Регистрация Запомнить меня
Войти через:  Facebook Google Twitter Vk Yandex Mail.ru

Misc Soundtrack - Parks And Recreation Theme - таба, видео

Печатать
Просмотров: 137
I took the other version and did some easier hand placement and whatever.
First tab, so don't be too hard on me. ^^
If you have a better way of playing this, please let me know!

e|----------------------------------------------------------------|
B|----------------------------------------------------------------|
G|-----9-7----10-----10-9-7-9-----9-7----7-----7------------------|
D|---------10-------------------------10----------10-9-10---------|
A|----------------------------------------------------------------|
E|----------------------------------------------------------------|

e|-------------------------------------------------------------------------|
B|-------------------------------------------------------------------------|
G|-9-7----10----10-9-7-9--------9-7----------------------------------------|
D|-----10---------------------------10-6----------6--6-7-9-7----7-7-9-10---|
A|-----------------------------------------------------------------------8-|
E|-------------------------------------------------------------------------|

e|-------------------------------------------------------------------------|
B|-------------------------------8-10-8-----------12--12--10-10--8-8--6-6--|
G|-----------------------7--9-10--------10-9-7----12--12--10-10--9-9--7-7--|
D|---------7------7-9-10--------------------------12--12--10-10--9-9--7-7--|
A|-8--8-10---10-----------------------------------10--10---8--8--7-7--5-5--|
E|-------------------------------------------------------------------------|

e|-------------------------------------------------------------------------|
B|-------------------------------------------------------------------------|
G|-9-7----10----10-9-7-----------------------------------------------------|
D|-----10--------------6-----6--6-7-9-7----7--7-9-10-----------------------|
A|---------------------------------------------------8---------------------|
E|-------------------------------------------------------------------------|

e|-------------------------------------------------------------------------|
B|-------------------------------------------------------------------------|
G|-------------------------------------------------------------------------|
D|---------7----------------7-9---------------6-7-----7-7-9-10-------------|
A|-8--8-10---10-----10--10------7----7--7-9--------------------8-----------|
E|-------------------------------------------------------------------------|

e|-------------------------------------------------------------------------|
B|-------------------------------------------------------------------------|
G|-------------------------------------------------------------------------|
D|-------------10----9------10---------------------------------------------|
A|-8--8-10-12--10----10-----10---------------------------------------------|
E|-------------------------------------------------------------------------|
Добавлено: 01.12.2013
Другие материалы по этой песне:
  • Аккорды и текст

Страница создана 01.12.2013
http://primanota.ru/misc-soundtrack/parks-and-recreation-theme-chords.htm
Привет, Гость.
Предлагаем пройти революционный курс по гитаре.
Подарок от PrimaNota.Ru, забирай!