PrimaNota.ru - самый крупный в мире бесплатный архив песенных текстов, аккордов, табулатур и нот


Misc Soundtrack - Playful Kiss - One More Time - таба, видео

Регистрация Запомнить меня
Войти через:  Facebook Google Twitter Vk Yandex Mail.ru

Misc Soundtrack - Playful Kiss - One More Time - таба, видео

Печатать
Просмотров: 196
  Song: One More Time - Playful Kiss OST
  Artist: Kim Hyun Joong
                       [http://en.wikipedia.org/wiki/Kim_Hyun_Joong]
                       [http://www.hyun-joong.com/index_main.asp]

  Tabs Editor: DIGVIJAY (D_Jai)
                       [http://profile.ultimate-guitar.com/D_Jai/]

  I hope, all the chords & leads are correct.
  Your suggestions & corrections are welcome!

  Tuning: Standard (EADGBe)

  Chords      Tablature

           E  A  D  G  B  e

    Bb     1  1  3  3  3  1
    Gm     3  5  5  3  3  3
    Cm     3  3  5  5  4  3
    F      1  3  3  2  1  1
    Dm     5  5  7  7  6  5

    B      2  2  4  4  4  2
    G#m    4  6  6  4  4  4
    C#m    4  4  6  6  5  4
    F#     2  4  4  3  2  2


  [Intro Chords - Leads]

  Bb    Gm    Cm  Gm  Cm  F

  e     | ----------------------------------------------11/13---11-10-11-----|
  B     | ------11----11/13---11-11---------------11-------------------------|
  G     | 10-12----10-----------------------10-12----10----------------------|
  D     | -------------------------------------------------------------------|
  A     | -------------------------------------------------------------------|
  E     | -------------------------------------------------------------------|


  e     | 11--10-------------------------------------------------------------|
  B     | ---------13--11---13/15-13-11-10----13/15--13_/15\13---11--11--11--|
  G     | ---------------------------------12--------------------------------|
  D     | -------------------------------------------------------------------|
  A     | -------------------------------------------------------------------|
  E     | -------------------------------------------------------------------|


  [Verse 1]

        Bb
  Naega mollasseonnabwa
          Gm
  Neoreul mollasseonnabwa
      Cm                   F
  Ireoke deo gakkaie inneunde
           Bb                    Gm
  Jeongmal sojunghan geoseun sarajyeogan hueya
    Cm                F
  Alsu inneungabwa jigeumui neocheoreom


  [Pre-Chorus 1]

  Dm  Gm       Cm            F
  Mianhae niga heullinnunmul alji motae
  Dm  Gm     Cm       F
  Mianhae ijeseoya niape waseo


  [Chorus 1]

  Bb            Gm
  One More Time One More Time
  Cm                           F
  Dasi hanbeon naegyeoteuro wajulsun eopgenni
  Bb                Gm
  Eonjena neomaneul saranghae
Cm                        F           Bb
  Neujeun I huhoemankeum deo saranghalkke


  [Verse 2]

      Bb
  Babogateun naega neol
         Gm
  Maeume eomneun maldeullo
        Cm                     F
  Geureoke manhi apeuge haennabwa
       Bb                  Gm
  Niga aniyeotdamyeon mollasseul haengboginde
   Cm                F
  Ijeya arasseo niga sarangirangeol


  [Pre-Chorus 2]

  Dm  Gm      Cm             F
  Gomawo sojunghan sarangeul gareuchyeojwo
  Dm  Gm     Cm          F
  Gomawo ije naega deo saranghalge


  [Chorus 1]

  Bb            Gm
  One More Time One More Time
  Cm                           F
  Dasi hanbeon naegyeoteuro wajulsun eopgenni
  Bb                Gm
  Eonjena neomaneul saranghae
Cm                        F
  Neujeun I huhoemankeum deo saranghalkke

  Bb            F
  One More Time One More Time


  [Guitar Solo]

  e     | 10-11-10-11-10-11/13------------------------|
  B     | ---------------------11-11--13-13/15__------|
  G     | --------------------------------------------|
  D     | --------------------------------------------|
  A     | --------------------------------------------|
  E     | --------------------------------------------|


  e     | --------------------------------------------|
  B     | 13/15-15-13-11---11-13-13/15--11--13___-----|
  G     | --------------------------------------------|
  D     | --------------------------------------------|
  A     | --------------------------------------------|
  E     | --------------------------------------------|


  e     | ---10-----13-13---13-13---14___-------------|
  B     | 13----13------------------------------------|
  G     | --------------------------------------------|
  D     | --------------------------------------------|
  A     | --------------------------------------------|
  E     | --------------------------------------------|


  [Chorus 2]

  B              G#m       C#m                   F#
  Saranghae neol saranghae ireon nareul dasi badajulsun eopgenni
  B                 G#m
  Eonjena naege jun geu sarang
C#m                    F#
  Naega da gapeul su itge
            B
  Heorakhaejwo
  C#m         B
  Nae soneul      jabajwo


  [Outro - Give Arpeggio or just play similar like Intro]

  B    G#m    C#m  G#m    C#m    F#


  Notation's meanings:

  /   : Slide up from upper fret note to lower fret note
  \   : Slide down from lower fret note to upper fret note
  _   : Hold the note for a moment


[Thank You!]
Добавлено: 06.06.2013
Другие материалы по этой песне:
  • Аккорды и текст

Страница создана 06.06.2013
http://primanota.ru/misc-soundtrack/playful-kiss-one-more-time-chords.htm
Привет, Гость.
Предлагаем пройти революционный курс по гитаре.
Подарок от PrimaNota.Ru, забирай!