PrimaNota.ru - самый крупный в мире бесплатный архив песенных текстов, аккордов, табулатур и нот


Misc Soundtrack - Colqhouns Story - таба

Регистрация Запомнить меня
Войти через:  Facebook Google Twitter Vk Yandex Mail.ru

Misc Soundtrack - Colqhouns Story - таба

Печатать
Просмотров: 72
 'colqhoun's story' by Damon Albarn and Michael Nyman, from the Original Motion Picture 
Soundtrack of the 1999
  movie 'Ravenous' by Antonia Bird.
  Tabbed by ear so it's the basic riffs.
  

main riff:

E|-----------------------------|
B|-----------------------------|
G|-----------7-----------------|
D|--5--5--7-----5--7--9--7--7--|
A|-----------------------------|
E|-----------------------------|

guitar part:

E|-----------------------------------------------------------|
B|--8--4--3--------6--3--1--------3-----------3--------------|
G|-----------------------------------3--5--------2--0--2--0--|
D|-----------------------------------------------------------|
A|-----------------------------------------------------------|
E|-----------------------------------------------------------|

Tabbed by maxox10
Добавлено: 14.05.2016
Другие материалы по этой песне:
  • Аккорды и текст

Страница создана 14.05.2016
http://primanota.ru/misc-soundtrack/colqhouns-story-chords.htm
Привет, Гость.
Предлагаем пройти революционный курс по гитаре.
Подарок от PrimaNota.Ru, забирай!