PrimaNota.ru - самый крупный в мире бесплатный архив песенных текстов, аккордов, табулатур и нот


Misc Soundtrack - Flåklypa - Reodors Ballade Flåklypa - таба

Регистрация Запомнить меня
Войти через:  Facebook Google Twitter Vk Yandex Mail.ru

Misc Soundtrack - Flåklypa - Reodors Ballade Flåklypa - таба

Печатать
Просмотров: 106
-------------------------------------------------------------------------------
                            Flåklypa - Reodors ballade
-------------------------------------------------------------------------------
Tabbed by: annierlarsen co-tabber Skydia
E-mail: annierlarsen@gmail.com

Tuning: Standard

Composed by Bent Fabricius Bjerre
Originally played by harmonica player Sigmund Groven
From the Norwegian childrens movie Flåklypa Grand Prix (1975)

We tried to tab as well as possible.
Used this video to find the notes (http://bit.ly/1UmsrT2)

Enjoy!

e|0-5-7-8-7-5-3-0-------------------------------------|
B|----------------1-3-5-6-5-3-1-3-5-3-1-0-------------|
G|----------------------------------------------------|
D|----------------------------------------------------|
A|----------------------------------------------------|
E|----------------------------------------------------|

e|0-5-7-8-7-5-3-0-------------------------------------|
B|----------------1-3-5-3-1-0-------------------------|
G|----------------------------2-1-2-------------------|
D|----------------------------------------------------|
A|----------------------------------------------------|
E|----------------------------------------------------|

e|----5-3-1-0-----------0-1-0-------------------------|
B|------------1---0-1-3-------3-1~--------------------|
G|2-------------2-------------------------------------|
D|----------------------------------------------------|
A|----------------------------------------------------|
E|----------------------------------------------------|

e|----5-3-1-0-----------0-1-0-------------------------|
B|------------1---0-1-3-------3-5~--------------------|
G|2-------------2-------------------------------------|
D|----------------------------------------------------|
A|----------------------------------------------------|
E|----------------------------------------------------|

e|0-5-7-8-7-5-3-0-------------------------------------|
B|----------------1-3-5-6-5-3-1-3-5-3-1-0-------------|
G|----------------------------------------------------|
D|----------------------------------------------------|
A|----------------------------------------------------|
E|----------------------------------------------------|

e|0-5-7-8-7-5-3-0-------------------------------------|
B|----------------1-3-5-3-1-0-------------------------|
G|----------------------------2-1-2~------------------|
D|----------------------------------------------------|
A|----------------------------------------------------|
E|----------------------------------------------------|

~ vibrato


Leave a comment, if you have some feedback! And please rate :) 


Добавлено: 14.05.2016
Другие материалы по этой песне:
  • Аккорды и текст

Страница создана 14.05.2016
http://primanota.ru/misc-soundtrack/flaklypa-reodors-ballade-flaklypa-chords.htm
Привет, Гость.
Предлагаем пройти революционный курс по гитаре.
Подарок от PrimaNota.Ru, забирай!