PrimaNota.ru - самый крупный в мире бесплатный архив песенных текстов, аккордов, табулатур и нот


Misc Soundtrack - Hard Knock Life - таба, видео

Регистрация Запомнить меня
Войти через:  Facebook Google Twitter Vk Yandex Mail.ru

Misc Soundtrack - Hard Knock Life - таба, видео

Печатать
Просмотров: 45
-------------------------------------------------------------------------------
                             Hard Knock Life - Annie
-------------------------------------------------------------------------------
Tabbed by: AnonymousPi
I was surprised to see no one tabbed out this classic song, so I decided to jam some 
of it out myself.
Tuning: Standard

e|-1--1-----1-----------1--1-----1--5--6--8--6--6--3--6--13--10--1--6--6--3--|
B|-------3--------1--3--------3----------------------------------------------|
G|-------------3-------------------------------------------------------------|
D|---------------------------------------------------------------------------|
A|---------------------------------------------------------------------------|
E|---------------------------------------------------------------------------|

e|-6--13--10--8--13--13--10--13--6--1--1-----1-----------1--1-----1--5--6--8-|
B|----------------------------------------3--------1--3---------3------------|
G|----------------------------------------------3----------------------------|
D|---------------------------------------------------------------------------|
A|---------------------------------------------------------------------------|
E|---------------------------------------------------------------------------|

e|-6--6--3--6--13--10--1--6--6--3--6--13--10--8--13--13--10--13--6-----------|
B|---------------------------------------------------------------------------|
G|---------------------------------------------------------------------------|
D|---------------------------------------------------------------------------|
A|---------------------------------------------------------------------------|
E|---------------------------------------------------------------------------|
Добавлено: 06.05.2016
Другие материалы по этой песне:
  • Аккорды и текст

Страница создана 06.05.2016
http://primanota.ru/misc-soundtrack/hard-knock-life-chords.htm
Привет, Гость.
Предлагаем пройти революционный курс по гитаре.
Подарок от PrimaNota.Ru, забирай!