PrimaNota.ru - самый крупный в мире бесплатный архив песенных текстов, аккордов, табулатур и нот


Misc Soundtrack - Atonement - Denouement - аккорды и текст, видео

Регистрация Запомнить меня
Войти через:  Facebook Google Twitter Vk Yandex Mail.ru

Misc Soundtrack - Atonement - Denouement - аккорды и текст, видео

Печатать
Просмотров: 105
Atonement - Denouement
Misc Soundtrack
---------------------------------------------------------------------------
                Denouement - Dario Marianelli
---------------------------------------------------------------------------
Tabbed by: maguri
Tuning: Standard

Dario Marianelli
Denouement (2007)
(Dario Marianelli)

From: "Atonement - OST"

https://www.youtube.com/watch?v=jqn2ym9wQck

I'm not an expert for film scores, but this is basic tab is what I could 
come up with. There is just so much melodic material to choose from and 
this choice is usually very difficult. Suggestions and corrections highly 
welcome!

---------------------------------------------------------------------------

ARRANGEMENT
Bars 1-11
Bars 1-6
Bars 1-11 (transposed 1 semitone down)

---------------------------------------------------------------------------

capo: 1st fret
play: Am / Gbm
key: Bbm / Am

---------------------------------------------------------------------------
CHORDS

           E-A-D-G-B-e
Am         x-0-2-2-1-x
Asus4      x-0-2-2-3-x
G7         3-x-0-0-0-1
G6         3-x-0-0-0-0
Dm9/F      1-x-3-2-3-0
Dm/F       1-x-3-2-3-x
Em7        0-2-2-0-3-x
Em(addb13) 0-2-2-0-1-x
F/A        x-0-3-2-1-x
C7M/E      0(3)2-0-0-x
C/E        0(3)2-0-1-x
C/G        3-x-2-0-1-0
Am(addb13) x-0-2-2-1-1

---------------------------------------------------------------------------

Main Theme
 [1]               [2]              [3]             [4]
  Am        Asus4  G7  G6         Dm9/F Dm/F        Em7 Em(addb13)
  1 + 2 + 3 + 4 +  1 + 2 + 3 + 4 +  1 + 2 + 3 + 4 +  1 + 2 + 3 + 4 +
e|----------------|----------------|----------------|----------------|
B|1-----------3---|0---------------|------------0---|----------------|
G|----------------|--------------0-|2---------------|0---------------|
D|----------------|----------2-3---|----------------|-----------0--2-|
A|----------------|----------------|----------------|---------3------|
E|----------------|----------------|----------------|----------------|
  [5]              [6]              [7]             [8]
  F/A   Cmaj/E C/E Dm/F    G        Am     C/G       Dm/F    C/E
  1 + 2 + 3 + 4 +  1 + 2 + 3 + 4 +  1 + 2 + 3 + 4 +  1 + 2 + 3 + 4 +
e|----------------|----------------|----------------|----------------|
B|------------0-1-|----------------|1-----------0---|----------------|
G|----------------|----------------|----------------|2---------------|
D|3-------2-------|0-------0---2-3-|----------------|----------------|
A|----------------|----------------[3]--------------|----------------|
E|----------------|----------------|----------------|----------------|
 [9]               [10]            [11]
                    Am(addb13)
  F       G   G6   Am      Bb
  1 + 2 + 3 + 4 +  1 + 2 + 3 + 4 +  1 + 2 + 3 + 4 + 
e|----------------|0---1---1-------|----------------|
B|--------0-------|1---1---3-------|----------------|
G|0-2-------------|----------------|----------------|
D|----------------|----------------|----------------|
A|----------------|----------------|----------------|
E|----------------|----------------|----------------|

---------------------------------------------------------------------------

Добавлено: 06.06.2015
Другие материалы по этой песне:

Страница создана 06.06.2015
http://primanota.ru/misc-soundtrack/atonement-denouement-chords.htm
Привет, Гость.
Предлагаем пройти революционный курс по гитаре.
Подарок от PrimaNota.Ru, забирай!