PrimaNota.ru - самый крупный в мире бесплатный архив песенных текстов, аккордов, табулатур и нот


Misc Soundtrack - The Hunger Games - Hanging Tree - таба, видео

Регистрация Запомнить меня
Войти через:  Facebook Google Twitter Vk Yandex Mail.ru

Misc Soundtrack - The Hunger Games - Hanging Tree - таба, видео

Печатать
Просмотров: 195
Уроки эстрадного вокала в Санкт-Петербурге
------------------------------------- Hanging Tree - Jennifer Lawrence -------------------------------------
Tabbed by: Nashy
E-mail:

Tuning: standard 

e|-------------------------------------------------------------0---------------------------------|
B|-------1--3--------------------------1--3-----------------------3--1--3--1---------------------|
G|-0--2--------2--2--2--0-----0--2--2--------0--2--2--2--0--2-----------------2--0--2--2--2--0---|
D|-------------------------2--------------------------------------------------------------------2|
A|-----------------------------------------------------------------------------------------------|
E|-----------------------------------------------------------------------------------------------|

e|-----------------------------------------------------------------------------------|
B|-------1--3------------------------------------------------------------------------|
G|-0--2--------0--2--2--2--0--2------------------------------------------------------|
D|-----------------------------------------------------------------------------------|
A|-----------------------------------------------------------------------------------|
E|-----------------------------------------------------------------------------------|

       LYRICS:
 Are you, are you
 
 Coming to the tree?
 
 They strung up a man
 
 They say who murdered three.
 
 Strange things did happen here
 
 No stranger would it be
 
 If we met at midnight
 
 In the hanging tree.







This is my first ever tab that I have written on ultimate guitar so I hope you like it!!!

if you have any suggestions or corrections please comment :D 


************************************

| /   slide up
| \   slide down
| h   hammer-on
| p   pull-off
| ~   vibrato
| +   harmonic
| x   Mute note
| b   Bend
| pb  Pre-bend
| br  Bend release
| pbr Pre-bend release
| brb Bend release bend

************************************
Добавлено: 06.06.2015
Другие материалы по этой песне:
  • Аккорды и текст

Страница создана 06.06.2015
http://primanota.ru/misc-soundtrack/hunger-games-hanging-tree-chords.htm
Привет, Гость.
Предлагаем пройти революционный курс по гитаре.
Подарок от PrimaNota.Ru, забирай!