PrimaNota.ru - самый крупный в мире бесплатный архив песенных текстов, аккордов, табулатур и нот


Misc Soundtrack - Sex And The City - Aaron Zigman - Did I Dream It - таба

Регистрация Запомнить меня
Войти через:  Facebook Google Twitter Vk Yandex Mail.ru

Misc Soundtrack - Sex And The City - Aaron Zigman - Did I Dream It - таба

Печатать
Просмотров: 111
-------------------------------------------------------------------------------
                             Did I Dream it - Aaron Zigman
                        FROM THE SEX AND THE CITY ORIGINAL SCORE
-------------------------------------------------------------------------------
Always wanted to learn how to play this so I tabbed it, gonna be editing in the future to add bass notes.

Tabbed by: DDDIEGO
E-mail:

Tuning: Standard

e|---------------------------------|
B|-0---0-3--------0---0-3----------|
G|---------0---2-----------0---2---| 
D|--0-------1------2--------3------|
A|---------------------------------|
E|---------------------------------|

e|--3-2-0-0-2-------------------|
B|------------3----3-1-0-0--1---|
G|-0-------------0------------2-|
D|------------------------------|
A|------------------------------|
E|------------------------------|

e|---------------------|
B|-0---0----0----------|
G|--0-0-0----0-0-2-4-2-| (x2)
D|---4---4----4--------|
A|---------------------|
E|---------------------|

e|-3---------5--2-3---------5--7-8---10-8-7-5-3-5---7-5-3-2-3-0--------|
B|---0--1-3---------0--1-3----------------------------------------3--1-|
G|----------------------------------------------------------------0--0-|
D|---------------------------------------------------------------------|
A|---------------------------------------------------------------------|
E|---------------------------------------------------------------------|

e|---------------------------------|
B|-0---0-3--------0---0-3----------|
G|---------0---2-----------0---2---| 
D|--0-------1------2--------3------|
A|---------------------------------|
E|---------------------------------|

e|-----------7------------------|
B|-0---0------8-7-8-10-12-10----|
G|--0-0-0-----------------------|
D|---4---4----------------------|
A|------------------------------|
E|------------------------------|

************************************

| /   slide up
| \   slide down
| h   hammer-on
| p   pull-off
| ~   vibrato
| +   harmonic
| x   Mute note
| b   Bend
| pb  Pre-bend
| br  Bend release
| pbr Pre-bend release
| brb Bend release bend

************************************
Добавлено: 06.06.2015
Другие материалы по этой песне:
  • Аккорды и текст

Страница создана 06.06.2015
http://primanota.ru/misc-soundtrack/sex-and-city-aaron-zigman-did-i-dream-it-chords.htm
Привет, Гость.
Предлагаем пройти революционный курс по гитаре.
Подарок от PrimaNota.Ru, забирай!