PrimaNota.ru - самый крупный в мире бесплатный архив песенных текстов, аккордов, табулатур и нот


Misc Computer Games - Zombie Farm Theme - таба, видео

Регистрация Запомнить меня
Войти через:  Facebook Google Twitter Vk Yandex Mail.ru

Misc Computer Games - Zombie Farm Theme - таба, видео

Печатать
Просмотров: 174
Уроки эстрадного вокала в Санкт-Петербурге
-------------------------------------------------------------------------------
                                                      Zombie Farm
-------------------------------------------------------------------------------

Sounds best with fingerpicking, thumb and forefinger seems easiest.

|--------------------------------------------|
|--- Credit for this tab goes to Aaron Grimes ---|
|--------------------------------------------|

Tuning: EADGBe

   G   C9
|--3---3--|e
|---------|B
|---------|G
|------2--|D
|--2---3--|A
|--3------|E    

    G                               C9
e|----3---3---3---3---3---3---3---3---3---3---3---3---3----------------------|
B|---------------------------------------------------------------------------|
G|------------------------------------------0--------------------------------|
D|----------0---------------0-----------2-------2----------------------------|
A|------2-------2-------2-------2---3---------------3------------------------|
E|--3---------------3--------------------------------------------------------|
Добавлено: 21.06.2012
Другие материалы по этой песне:
  • Аккорды и текст

Страница создана 21.06.2012
http://primanota.ru/misc-computer-games/zombie-farm-theme-chords.htm
Привет, Гость.
Предлагаем пройти революционный курс по гитаре.
Подарок от PrimaNota.Ru, забирай!