PrimaNota.ru - самый крупный в мире бесплатный архив песенных текстов, аккордов, табулатур и нот


Misc Computer Games - Willow - Town - таба, бас-таба, видео

Регистрация Запомнить меня
Войти через:  Facebook Google Twitter Vk Yandex Mail.ru

Misc Computer Games - Willow - Town - таба, бас-таба, видео

Печатать
Просмотров: 45
Новый альбом группы 'Черный Кузнец' по культовому сериалу 'Сверхъестественное'!
Willow (NES) - Town Theme

Gtr I (E A D G B E) - 'Harpsichord'
Gtr II (E A D G B E) - 'Ocarina'

    4/4
     Gtr I
      E   E  E  E  E  E   E   E    E  E        E  E  E  E  E  E
e||----------------------13-----|----13-------------12-------12-|
B||o-13--12-12-13-12-12------13-|-13----------13-13----12-12----|
G||-----------------------------|-------------------------------|
D||-----------------------------|-------------------------------|
A||o----------------------------|-------------------------------|
E||-----------------------------|-------------------------------|
|
 |   Gtr I
 |    E   E  E  E  E  E   E   E    E  E        E  E  E  E  E  E
e||-----------------------------|-------------------------------|
B||o----------------------------|-------------------------------|
G||------12-12----12-12------14-|-14----------14-14----12-12----|
D||--10--------10--------12-----|----12-------------10-------10-|
A||o----------------------------|-------------------------------|
E||-----------------------------|-------------------------------|
|
 |   Gtr II
 |    H.                 +E   E    E  S  T  T  E  E  H
e||-----------------------------|----17-18-19-20-19-------------|
B||o-17-----------------(17)-18-|-20----------------20----------|
G||-----------------------------|-------------------------------|
D||-----------------------------|-------------------------------|
A||o----------------------------|-------------------------------|
E||-----------------------------|-------------------------------|


     E   E  E  E  E  E        E  E    E  E  E  E  E  E  E  E
e|---------13-------13-------------|-20-------15-------13----|
B|--12--12----13-13----------13-13-|----12-12----12-12----11-|
G|---------------------------------|-------------------------|
D|---------------------------------|-------------------------|
A|---------------------------------|-------------------------|
E|---------------------------------|-------------------------|
 |
 |   E   E  E  E  E  E        E  E    E  E  E  E  E  E  E  E
e|---------------------------------|-------------------------|
B|---------------------------------|-------------------------|
G|--12--12----14-14----------14-14-|----12-12----12-12----12-|
D|---------12-------12-------------|-10-------10-------13----|
A|---------------------------------|-------------------------|
E|---------------------------------|-------------------------|
 |
 |  +Q.        E  E  S  T  T  E  E    H           E  E  Q
e|------------------17-18-19-20-19-|-24----------20----18----|
B|-(20)-------18-20----------------|----------------20-------|
G|---------------------------------|-------------------------|
D|---------------------------------|-------------------------|
A|---------------------------------|-------------------------|
E|---------------------------------|-------------------------|


    E  E  E  E  E  E  E  E     E   E           E   E  E  E   E  E
e|----12-------17-------13-|------------------22--------19--------|
B|-11----11-11----13-13----|--------------------------------------|
G|-------------------------|--17--17--------------10-10-----10-10-|
D|-------------------------|--------------------------------------|
A|-------------------------|--------------------------------------|
E|-------------------------|--------------------------------------|
 |
 |  E  E  E  E  E  E  E  E     E   E           E   E  E  E   E  E
e|-------------------------|--------------------------------------|
B|-------------------------|--------------------------------------|
G|-12----12-12----14-14----|--14--14------------------------------|
D|----13-------12-------12-|----------------------12-12-----12-12-|
A|-------------------------|------------------10--------10--------|
E|-------------------------|--------------------------------------|
 |
 |  E  E  E  E  H             +E   T  T  T  T  Q.        Q.
e|-17-16-17-20-25----------|-(25)-------22-24-26--------27--------|
B|-------------------------|------24-25---------------------------|
G|-------------------------|--------------------------------------|
D|-------------------------|--------------------------------------|
A|-------------------------|--------------------------------------|
E|-------------------------|--------------------------------------|


    E   E  E  E  E  E   E   E    E  E        E  E  E  E  E  E
e|---------------------13-----|----13-------------12-------12--|
B|-13--12-12-13-12-12------13-|-13----------13-13----12-12-----|
G|----------------------------|--------------------------------|
D|----------------------------|--------------------------------|
A|----------------------------|--------------------------------|
E|----------------------------|--------------------------------|
 |
 | Gtr II
 |  H.                 +E   E    E  S  T  T  E  E  H
e|----------------------------|----17-18-19-20-19--------------|
B|-17-----------------(17)-18-|-20----------------20-----------|
G|----------------------------|--------------------------------|
D|----------------------------|--------------------------------|
A|----------------------------|--------------------------------|
E|----------------------------|--------------------------------|
 |
 |  W                            W
e|----------------------------|--------------------------------|
B|----------------------------|--------------------------------|
G|----------------------------|--------------------------------|
D|----------------------------|--------------------------------|
A|----------------------------|--------------------------------|
E|----------------------------|--------------------------------|


     E   E  E  E  E  E        E  E    E  E  E  E  E  E  E  E
e|---------13-------13-------------|-20-------15-------13----|
B|--12--12----13-13----------13-13-|----12-12----12-12----11-|
G|---------------------------------|-------------------------|
D|---------------------------------|-------------------------|
A|---------------------------------|-------------------------|
E|---------------------------------|-------------------------|
 |
 |  +Q.        E  E  S  T  T  E  E    H           E  E  Q
e|------------------17-18-19-20-19-|-24----------20----18----|
B|-(20)-------18-20----------------|----------------20-------|
G|---------------------------------|-------------------------|
D|---------------------------------|-------------------------|
A|---------------------------------|-------------------------|
E|---------------------------------|-------------------------|


    E  E  E  E  E  E  E  E     E   E           E   E  E  E   E  E
e|----12-------17-------13-|------------------22--------19----------||
B|-11----11-11----13-13----|---------------------------------------o||
G|-------------------------|--17--17--------------10-10-----10-10---||
D|-------------------------|----------------------------------------||
A|-------------------------|---------------------------------------o||
E|-------------------------|----------------------------------------||
 |
 |  E  E  E  E  H             +E   T  T  T  T  Q.        Q.
e|-17-16-17-20-25----------|-(25)-------22-24-26--------27----------||
B|-------------------------|------24-25----------------------------o||
G|-------------------------|----------------------------------------||
D|-------------------------|----------------------------------------||
A|-------------------------|---------------------------------------o||
E|-------------------------|----------------------------------------||



************************************

| (n)  Ghost note
|  w   whole note  
|  h   half note
|  q   quarter note
|  e   8th     

************************************
Добавлено: 27.03.2018
Другие материалы по этой песне:

Страница создана 18.03.2018
http://primanota.ru/misc-computer-games/willow-town-chords.htm
Привет, Гость.
Предлагаем пройти революционный курс по гитаре.
Подарок от PrimaNota.Ru, забирай!