PrimaNota.ru - самый крупный в мире бесплатный архив песенных текстов, аккордов, табулатур и нот


Misc Computer Games - Super Mario 64 Ds - Psyche Out - бас-таба, видео

Регистрация Запомнить меня
Войти через:  Facebook Google Twitter Vk Yandex Mail.ru

Misc Computer Games - Super Mario 64 Ds - Psyche Out - бас-таба, видео

Печатать
Просмотров: 101
Уроки эстрадного вокала в Санкт-Петербурге
Psyche Out! - Bass Tab

Note: This is from the Nintendo DS game, "Super Mario 
64 DS."  This is the theme that plays when you are playing
the mini-game, "Psyche Out!"

[x2]
G|------------------------------------------------------------|
D|-5----------5----------3----------3-------------------------|
A|------------------------------------------------------------|
E|------------------------------------------------------------|

G|------------------------------------------------------------|
D|------------------------------------------------------------|
A|-6----------6----------3----------3-------------------------|
E|------------------------------------------------------------|

G|------------------------------------------------------------|
D|-5----------3-----------------------------------------------|
A|-----------------------6----------3-------------------------|
E|------------------------------------------------------------|

G|------------------------------------------------------------|
D|-5----------5-----------------------------------------------|
A|------------------------------------------------------------|
E|------------------------------------------------------------|

G|------------------------------------------------------------|
D|-5----------3-----------------------------------------------|
A|-----------------------6----------3-------------------------|
E|------------------------------------------------------------|

G|------------------------------------------------------------|
D|-5----------5-----------------------------------------------|
A|------------------------------------------------------------|
E|------------------------------------------------------------|

G|-5----------4----------2------------------------------------|
D|----------------------------------5-------------------------|
A|------------------------------------------------------------|
E|------------------------------------------------------------|

G|-5----------4----------3----------2-------------------------|
D|----------------------------------------2-------------------|
A|------------------------------------------------------------|
E|------------------------------------------------------------|

G|------------------------------------------------------------|
D|-5----------3-----------------------------------------------|
A|-----------------------6----------3-------------------------|
E|------------------------------------------------------------|

G|------------------------------------------------------------|
D|-5----------5-----------------------------------------------|
A|------------------------------------------------------------|
E|------------------------------------------------------------|

G|------------------------------------------------------------|
D|-5----------3-----------------------------------------------|
A|-----------------------6----------3-------------------------|
E|------------------------------------------------------------|

G|------------------------------------------------------------|
D|-5----------5-----------------------------------------------|
A|------------------------------------------------------------|
E|------------------------------------------------------------|

G|------------------------------------------------------------|
D|-3----------3-----------------------------------------------|
A|-----------------------6----------6----------5----------5---|
E|------------------------------------------------------------|

If there's any confusion, questions, or advice on how to 
improve it, please post a comment. Have fun playing, and 
please rate! -Rarrlow
Добавлено: 10.08.2014
Другие материалы по этой песне:
  • Аккорды и текст

Страница создана 10.08.2014
http://primanota.ru/misc-computer-games/super-mario-64-ds-psyche-out-chords.htm
Привет, Гость.
Предлагаем пройти революционный курс по гитаре.
Подарок от PrimaNota.Ru, забирай!