PrimaNota.ru - самый крупный в мире бесплатный архив песенных текстов, аккордов, табулатур и нот


Misc Computer Games - Street Fighter 4 - Cammy Theme - таба, видео

Регистрация Запомнить меня
Войти через:  Facebook Google Twitter Vk Yandex Mail.ru

Misc Computer Games - Street Fighter 4 - Cammy Theme - таба, видео

Печатать
Просмотров: 174
Уроки эстрадного вокала в Санкт-Петербурге
Cammy White's theme from Super Street Fighter II. The song has been remixed many
times, and often sounds different, this is the original version.

Intro:
e-2--2--2-----------------------| x2
B-4--4--4-----2---------------2-|
G-3--3--3---3-----4--4--4---4---|
D-----------------4--4--4-------|
A-----------------2--2--2-------|
E-------------------------------|

Bridge:
e----------------------------------|
B-4---------4------6---------6-----|
G-4-----4h6---4----6-----6h8---6---|
D-6---6---------6--8---8---------8-|
A----------------------------------|
E----------------------------------|

e----------------------------------------|
B-7---------7------9-------------9-------|
G-8-----8-----8----10------10h11---10----|
D-9---9---------9--11---11------------11-|
A----------------------------------------|
E----------------------------------------|

Main Riff:
e-1---------1--2-1----------1-2---6-4-2-1--2-1—2p1---|
B-------2h4--------2-2/4--4-----2------------------4-|
G-----3----------------------------------------------|
D----------------------------------------------------|
A----------------------------------------------------|
E----------------------------------------------------|

e-------1//7-6---------------|
B---2h4--------7-6-7-7/9-7-6-|
G-3--------------------------|
D----------------------------|
A----------------------------|
E----------------------------|

The main riff is usually repeated several times before the song starts over on a loop.

-Jackwc
Добавлено: 06.06.2012
Другие материалы по этой песне:
  • Аккорды и текст

Страница создана 06.06.2012
http://primanota.ru/misc-computer-games/street-fighter-4-cammy-theme-chords.htm
Привет, Гость.
Предлагаем пройти революционный курс по гитаре.
Подарок от PrimaNota.Ru, забирай!