PrimaNota.ru - самый крупный в мире бесплатный архив песенных текстов, аккордов, табулатур и нот


Misc Computer Games - Song Of Storms - таба, видео

Регистрация Запомнить меня
Войти через:  Facebook Google Twitter Vk Yandex Mail.ru

Misc Computer Games - Song Of Storms - таба, видео

Печатать
Просмотров: 98
This is my first tab so sorry if it sucks hard, leave feedback and suggestions for more

Standard tuning(EADGBe)

1 guitar:
e|-----------------------------------|
B|----6--6-----8------10--10-----8---|
G|----7--7-----9------10--10-----9---|
D|-----------------------------------|    x2
A|-5--------7------8----------7------|
E|-----------------------------------|


2 guitar:
|-----------------------------play 2 times------------------------------

e|------10----------10----12-13-12-13-12-------------------------------|
B|---------------------------------------13----------------------------|
G|-7--10-------7--10------------------------14---14-----------14-------|
D|---------------------------------------------------12--15-17---------|
A|---------------------------------------------------------------------|
E|---------------------------------------------------------------------|

-----1st ending----| ---------2nd ending--------|

-------------------| ---------------------------|
-------------------| ---------------------------|
-14----------------| -14-----------14--14-------|
----12--15-17-14---| ----12-15-17----------12~~-|
-------------------| ---------------------------|
-------------------| ---------------------------|

1 guitar
|------------play 2 times--------------------  -------1st ending------|

e|-------------------------------------------  ------------------------|
B|----6--6-----8------10--10-----8-------6-6-  ---6---------6-6-----5--|
G|----7--7-----9------10--10-----9-------7-7-  ---5---------7-7-----6--|
D|------------------------------------8------  ----------8-------7-----|
A|-5--------7------8----------7--------------  8-----------------------|
E|-------------------------------------------  ------------------------|

---2nd ending--|

---------------|
------5--------|
------6--------|
---7-----------|
---------5-----|
---------------|
Добавлено: 11.09.2013
Другие материалы по этой песне:
  • Аккорды и текст

Страница создана 11.09.2013
http://primanota.ru/misc-computer-games/song-of-storms-chords.htm
Привет, Гость.
Предлагаем пройти революционный курс по гитаре.
Подарок от PrimaNota.Ru, забирай!