PrimaNota.ru - самый крупный в мире бесплатный архив песенных текстов, аккордов, табулатур и нот


Misc Computer Games - Resident Evil 5 - Slayers Theme - таба, видео

Регистрация Запомнить меня
Войти через:  Facebook Google Twitter Vk Yandex Mail.ru

Misc Computer Games - Resident Evil 5 - Slayers Theme - таба, видео

Печатать
Просмотров: 123
I was bored and I kinda like the song so yeah here it is, oh and if you play it, 
you'll get yourself a nice bonus :D

Intro 0.00 - 0.26
e|---------------------------|
B|---------------------------|
G|---------------------------|
D|---------------------------|
A|--------2------------4-2---|
E|-2h4444---4---2h4444-------|

“Bass”
0.26 - 0.56
e|-------------------------------------------------|
B|-------------------------------------------------|
G|-------------------------------------------------|
D|--------------------------------------------2-1--|
A|--------2------------4-2---------2---------------|
E|-2h4444---4---2h4444------2h4444---4--2h4444-----|

“keyboard”
0.26 - 0.56
e|----16----------14---------------------------|
B|----------17----------16----17---14-16-17-14-|
G|-13----13----13----13----13------------------|
D|---------------------------------------------|
A|---------------------------------------------|
E|---------------------------------------------|

e|----16----------14---------------------|
B|----------17----------16---------------|
G|-13----13----13----13------15-16-15-13-|
D|---------------------------------------|
A|---------------------------------------|
E|---------------------------------------|

e|----16----------14---------------------------|
B|----------17----------16----17---14-16-17-14-|
G|-13----13----13----13----13------------------|
D|---------------------------------------------|
A|---------------------------------------------|
E|---------------------------------------------|

e|-----16----------14-------14-16-19-18-|
B|-----------17----------16-------------|
G|-13----13----13----13-----------------|
D|--------------------------------------|
A|--------------------------------------|
E|--------------------------------------|

0.56 - 1.50
Keyboard 2
e|--------------------------------|
B|--------------------------------|
G|--------------------------------|
D|-6(x12)-8(x4)-9(x8)-8(x4)-9(x4)-|
A|--------------------------------|
E|--------------------------------|

Keyboard 3
e|-------------------------------------------------11(x4)--------9(x4)-11-12-11-|
B|-9(x12)-11(x4)-12(x8)-11(x4)-9-11-12-11---9(x12)--------12(x8)----------------|
G|------------------------------------------------------------------------------|
D|------------------------------------------------------------------------------|
A|------------------------------------------------------------------------------|
E|------------------------------------------------------------------------------|

Keyboard 1 enters at 1.06 - 1.50 while keyboard 3 plays

Then the song repeats

Добавлено: 21.07.2012
Другие материалы по этой песне:
  • Аккорды и текст

Страница создана 21.07.2012
http://primanota.ru/misc-computer-games/resident-evil-5-slayers-theme-chords.htm
Привет, Гость.
Предлагаем пройти революционный курс по гитаре.
Подарок от PrimaNota.Ru, забирай!