PrimaNota.ru - самый крупный в мире бесплатный архив песенных текстов, аккордов, табулатур и нот


Misc Computer Games - Portal - Still Alive - таба, видео

Регистрация Запомнить меня
Войти через:  Facebook Google Twitter Vk Yandex Mail.ru

Misc Computer Games - Portal - Still Alive - таба, видео

Печатать
Просмотров: 146
Уроки эстрадного вокала в Санкт-Петербурге
This tab was written up by a friend of mine. It's the rythm to the Portal theme song.

-------------------------------------------------------------------------------
                                Portal Theme
-------------------------------------------------------------------------------
Tabbed by: Skuli Danielson
Email: superdog1019@hotmail.com

e|-3-2-0-0-2-----3-2-0-0---2-------------0-2-3-0-----------2---3-2-0-0-2-|
B|-------------0-------------3---5-0---0---------2-3-5-0-3---------------|
G|-----------------------------------------------------------------------|
D|-----------------------------------------------------------------------|
A|-----------------------------------------------------------------------|
E|-----------------------------------------------------------------------|

e|---3-2-0-0---2-----------0-2-3-0--------------|
B|-0-------------3---5-0-----------2-3-5----2-3-|
G|---------------------------------------4------|
D|----------------------------------------------|
A|----------------------------------------------|
E|----------------------------------------------|

| /  slide up
| \  slide down
| h  hammer-on
| p  pull-off
| ~  vibrato
| +  harmonic
| x  Mute note
===============================================================================
Добавлено: 19.04.2012
Другие материалы по этой песне:

Страница создана 19.04.2012
http://primanota.ru/misc-computer-games/portal-still-alive-chords.htm
Привет, Гость.
Предлагаем пройти революционный курс по гитаре.
Подарок от PrimaNota.Ru, забирай!