PrimaNota.ru - самый крупный в мире бесплатный архив песенных текстов, аккордов, табулатур и нот


Misc Computer Games - Phoenix Wright Ace Attorney - Cross-examination Moderato 2001 - таба, видео

Регистрация Запомнить меня
Войти через:  Facebook Google Twitter Vk Yandex Mail.ru

Misc Computer Games - Phoenix Wright Ace Attorney - Cross-examination Moderato 2001 - таба, видео

Печатать
Просмотров: 114
Уроки эстрадного вокала в Санкт-Петербурге
                        Phoenix Wright: Ace Attorney
                      Cross-Examination ~ Moderato 2001   

It's a simple tab, just repeat first four bars as long as you want (you need trained fingers to do that tho). 

I'll post guitar pro tab later.


E||--------------------------|--------------------------|
B||--------------------------|--------------------------|
G||-----------6--------7-----|-----6--------9-----6-----|
D||--9-----------------------|--------------------------|
A||--------------------------|--------------------------|
E||-----7--7-----7--7-----7--|--7-----7--7-----7-----7--|

--------------------------|--------------------------|
--------------------------|--------------------------|
--7--------6--------------|--------------------6-----|
--------------------7-----|--------------7-----------|
--------------------------|-----9--------------------|
-----7--7-----7--7-----7--|--7-----7--7-----7-----7--|
  
--------------------------|--------------------------|
--------------------------|--------------------------|
-----------6--------7-----|-----6--------9-----6-----|
--9-----------------------|--------------------------|
--------------------------|--------------------------|
-----7--7-----7--7-----7--|--7-----7--7-----7-----7--|

--------------------------|--------------------------|
--------------------------|--------------------------|
--7--------6--------------|--------------------6-----|
--------------------7-----|--------------7-----------|
--------------------------|-----9--------------------|
-----7--7-----7--7-----7--|--7-----7--7-----7-----7--|

--------------------------|--------------------------|
--------------------------|--------------------------|
-----------6--------7-----|-----6--------9-----6-----|
--9-----------------------|--------------------------|
--------------------------|--------------------------|
-----7--7-----7--7-----7--|--7-----7--7-----7-----7--|

--------------------------|--------------------------|
--------------------------|--------------------------|
--7--------6--------------|--------------------6-----|
--------------------7-----|--------------7-----------|
--------------------------|-----9--------------------|
-----7--7-----7--7-----7--|--7-----7--7-----7-----7--|

--------------------------|--------------------------|
--------------------------|--------------------------|
-----------6--------7-----|-----6--------9-----6-----|
--9-----------------------|--------------------------|
--------------------------|--------------------------|
-----7--7-----7--7-----7--|--7-----7--7-----7-----7--|
        
--------------------------|--------------------------|
--------------------------|--------------------------|
--7--------6--------------|--------------------6-----|
--------------------7-----|--------------7-----------|
--------------------------|-----9--------------------|
-----7--7-----7--7-----7--|--7-----7--7-----7-----7--|
Добавлено: 21.08.2015
Другие материалы по этой песне:

Страница создана 04.03.2012
http://primanota.ru/misc-computer-games/phoenix-wright-ace-attorney-cross-examination-moderato-2001-chords.htm
Привет, Гость.
Предлагаем пройти революционный курс по гитаре.
Подарок от PrimaNota.Ru, забирай!