PrimaNota.ru - самый крупный в мире бесплатный архив песенных текстов, аккордов, табулатур и нот


Misc Computer Games - Metro 2033 - Guitar Song 1 - таба, видео

Регистрация Запомнить меня
Войти через:  Facebook Google Twitter Vk Yandex Mail.ru

Misc Computer Games - Metro 2033 - Guitar Song 1 - таба, видео

Печатать
Просмотров: 718
E|----------------------------------|----------------------------------|
B|-------0--1--1--0-----3----1-0--0-|-------0--1--1--0-----0-----------|
G|----2--------2-----2--2-----------|----2--------------2--------------|
D|-2--2--------0--------0-----------|-2--2-----------------2-----------|
A|--------------------------------2-|----------------------------------|
E|----------------------------------|-------------1--------------------|

E|----------------------------------|----------------------------------|
B|-------0--1--1--0-----3----1-0--0-|-1--0-----0--------------1--------|
G|----2--------2-----2--2-----------|-2-----2-----2--1--2--4-----2-----|
D|-2--2--------0--------0-----------|-2-----------------2--------------|
A|--------------------------------2-|----------2-----------------------|
E|----------------------------------|----------------------------------|

       Asus2       Asus2      Gsus4/E     Gsus4/E      Dadd9       Dadd9       Eadd9       Eadd9
E|-------------------------------------------------------------------------------------------------|
B|-------0-----------0-----------1-----------1-----------3-----------3-----------0-----------0-----|
G|-----2---2-------2---2-------0---0-------0---0-------2---2-------2---2-------1---1-------1---1---|
D|---2-------2---2-------2---0-------0---0-------0---0-------0---0-------0---2-------2---2-------2-|
A|-0-----------0-----------------------------------------------------------------------------------|
E|-------------------------3-----------3-----------1-----------1-----------0-----------0-----------|
  \x2/


       Asus2       Asus2      Gsus4/E     Gsus4/E      Dadd9       Dadd9       Eadd9       Eadd9
E|-------0-----------0-----------0-----------0-----------0-----------0-----------0-----------0-----|
B|-------0-----------0-----------1-----------1-----------3-----------3-----------0-----------0-----|
G|-----2---2-------2---2-------0---0-------0---0-------2---2-------2---2-------1---1-------1---1---|
D|---2-------2---2-------2---0-------0---0-------0---0-------0---0-------0---2-------2---2-------2-|
A|-0-----------0-----------------------------------------------------------------------------------|
E|-------------------------3-----------3-----------1-----------1-----------0-----------0-----------|
  \x2/


           Asus2                   Gsus4/E                 Dadd9                    Eadd9
E|-0-----0-----0-----0-----0-----0-----0-----0-----0-----0-----0-----0-----0-----0-----0-----0-----|
B|-0-0-0-0-0-0-0-0-0-0-0-0-1-1-1-1-1-1-1-1-1-1-1-1-3-3-3-3-3-3-3-3-3-3-3-3-0-0-0-0-0-0-0-0-0-0-0-0-|
G|-2-2-2-2-2-2-2-2-2-2-2-2-0-0-0-0-0-0-0-0-0-0-0-0-2-2-2-2-2-2-2-2-2-2-2-2-1-1-1-1-1-1-1-1-1-1-1-1-|
D|-2-2-2-2-2-2-2-2-2-2-2-2-0-0-0-0-0-0-0-0-0-0-0-0-0-0-0-0-0-0-0-0-0-0-0-0-2-2-2-2-2-2-2-2-2-2-2-2-|
A|-0-0-0-0-0-0-0-0-0-0-0-0-x-x-x-x-x-x-x-x-x-x-x-x-0-0-0-0-0-0-0-0-0-0-0-0-2-2-2-2-2-2-2-2-2-2-2-2-|
E|-x-x-x-x-x-x-x-x-x-x-x-x-3-3-3-3-3-3-3-3-3-3-3-3-x-x-x-x-x-x-x-x-x-x-x-x-0-0-0-0-0-0-0-0-0-0-0-0-|
  \x2/

           Asus2                   Gsus4/E                   Dadd9                    Eadd9
E|-0-00000-0-0-0-00000-0-0-0-00000-0-0-0-00000-0-0-0-00000-0-0-0-00000-0-0-0-00000-0-0-0-00000-0-0-|
B|-0-00000-0-0-0-00000-0-0-1-11111-1-1-1-11111-1-1-3-33333-3-3-3-33333-3-3-0-00000-0-0-0-00000-0-0-|
G|-2-22222-2-2-2-22222-2-2-0-00000-0-0-0-00000-0-0-2-22222-2-2-2-22222-2-2-1-11111-1-1-1-11111-1-1-|
D|-2-22222-2-2-2-22222-2-2-0-00000-0-0-0-00000-0-0-0-00000-0-0-0-00000-0-0-2-22222-2-2-2-22222-2-2-|
A|-0-00000-0-0-0-00000-0-0-x-xxxxx-x-x-x-xxxxx-x-x-0-00000-0-0-0-00000-0-0-2-22222-2-2-2-22222-2-2-|
E|-x-xxxxx-x-x-x-xxxxx-x-x-3-33333-3-3-3-33333-3-3-x-xxxxx-x-x-x-xxxxx-x-x-0-00000-0-0-0-00000-0-0-|


           Asus2                     Gsus4/E                Dadd9             Eadd9        Asus2
E|0-00000-0-0-0-00000-0-0-0-00000-0-0-0-00000-0-0-0-00000-0-0-0-00000-0-0-0-00000-0-0-0-----0-----0|
B|0-00000-0-0-0-00000-0-0-1-11111-1-1-1-11111-1-1-3-33333-3-3-3-33333-3-3-0-00000-0-0-0-0-0-0-0-0-0|
G|2-22222-2-2-2-22222-2-2-0-00000-0-0-0-00000-0-0-2-22222-2-2-2-22222-2-2-1-11111-1-1-2-2-2-2-2-2-2|
D|2-22222-2-2-2-22222-2-2-0-00000-0-0-0-00000-0-0-0-00000-0-0-0-00000-0-0-2-22222-2-2-2-2-2-2-2-2-2|
A|0-00000-0-0-0-00000-0-0-x-xxxxx-x-x-x-xxxxx-x-x-0-00000-0-0-0-00000-0-0-2-22222-2-2-0-0-0-0-0-0-0|
E|x-xxxxx-x-x-x-xxxxx-x-x-3-33333-3-3-3-33333-3-3-x-xxxxx-x-x-x-xxxxx-x-x-0-00000-0-0-x-x-x-x-x-x-x|
Добавлено: 14.03.2012
Другие материалы по этой песне:

Страница создана 14.03.2012
http://primanota.ru/misc-computer-games/metro-2033-guitar-song-1-chords.htm
Привет, Гость.
Предлагаем пройти революционный курс по гитаре.
Подарок от PrimaNota.Ru, забирай!