PrimaNota.ru - самый крупный в мире бесплатный архив песенных текстов, аккордов, табулатур и нот


Misc Computer Games - Megaman Zero 3 - Break Out - таба, видео

Регистрация Запомнить меня
Войти через:  Facebook Google Twitter Vk Yandex Mail.ru

Misc Computer Games - Megaman Zero 3 - Break Out - таба, видео

Печатать
Просмотров: 109
Новый альбом группы 'Черный Кузнец' по культовому сериалу 'Сверхъестественное'!
Mega Man Zero 3 Intro Stage Theme(Mythos Style)

Intro


e|---------------------------------------------------------------------------|
B|---------------------------------------------------------------------------|
G|---------------------------------------------------------------------------|
D|-0-0--3--10-9--0-0--3--5-7--0-0--3--7-9--0-0--3-5-7--0-0--3-7-9--0-0-3-0---| X2
A|-------------------------------------------------------------------------3-|
E|---------------------------------------------------------------------------|

Main Theme

e|--------------------------------------------------------------------------|
B|--------------------------------------------------------------------------|
G|---10--10-9-10-12-10-9-7-----10-9----12-10---------14-12----17-14---------|
D|--------------------------8-------10---------12---------------------------|
A|--------------------------------------------------------------------------|
E|--------------------------------------------------------------------------|

e|--------------------------------------------------------|
B|--------------------------------------------------------|
G|--10--10-9-10-12-14-15-14--10--9--7-9h7/5---------------|
D|--------------------------------------------------------|
A|--------------------------------------------------------|
E|--------------------------------------------------------|

e|--------------------------------------------------------|
B|--------------------------------------------------------|
G|--------------------------------------------------------|
D|--------------------------------------------------------|
A|------8-7-5-3-0-(5)--------------------------------------|
E|-6------------------------0-3-5-6/5/3--0-3-5-6/5/3------|

e|-6------8-----------------------|
B|----6-5--------10TP13-----------|
G|--------------------------------|
D|--------------------------------|
A|--------------------------------|
D|--------------------------------|


e|----------------------------------------------------------|
B|----------------------------------------------------------|
G|-7~-12-10-9-7h5-7~~--7--14-12-10p9-10-12~-15--14----------|
D|-------------------------------------------------------12-|
A|----------------------------------------------------------|
E|----------------------------------------------------------|
Then Repeat

Special Thanks To hslesperance For His Assistance On this tab
Добавлено: 05.11.2014
Другие материалы по этой песне:
  • Аккорды и текст

Страница создана 05.11.2014
http://primanota.ru/misc-computer-games/megaman-zero-3-break-out-chords.htm
Привет, Гость.
Предлагаем пройти революционный курс по гитаре.
Подарок от PrimaNota.Ru, забирай!