PrimaNota.ru - самый крупный в мире бесплатный архив песенных текстов, аккордов, табулатур и нот


Misc Computer Games - Mega Man 2 - Dr Wilys Castle Stage 1 - таба, видео

Регистрация Запомнить меня
Войти через:  Facebook Google Twitter Vk Yandex Mail.ru

Misc Computer Games - Mega Man 2 - Dr Wilys Castle Stage 1 - таба, видео

Печатать
Просмотров: 80
Уроки эстрадного вокала в Санкт-Петербурге
Mega Man 2
Wily's Stage 1


e-------------------------------------------------]
b-----------------------------------------9----9--]
g----9-9-9--9-9-9-9-------9-9--9-9-9--------11----]
d-11----------------11---------------11-----------]
a-------------------------------------------------]
e-------------------------------------------------]

e-------------------------------------------------]
b-----------------9-------------------------------]
g-9-9-9-9-9-9-------11-9-11-----------------------]
d-------------11----------------------------------]
a-------------------------------------------------]
e-------------------------------------------------]

e-------------------------------------------------]
b----------------------9--------------------------]
g-11-11-11-11-11-11-8----11-9-8-------------------]
d-------------------------------------------------]
a-------------------------------------------------]
e-------------------------------------------------]

e-------------------------------11-12-------------]
b-------9-12-11--------9-12-11--------------------]
g-------------------------------------------------]
d-11-11----------11-11----------------------------]
a-------------------------------------------------]
e-------------------------------------------------]

e-------------------------------------------------]
b-----------------------------------------9----9--]
g----9-9-9--9-9-9-9-------9-9--9-9-9--------11----]
d-------------------11---------------11-----------]
a-------------------------------------------------]
e-------------------------------------------------]

e-------------------------------------------------]
b-----------------9-------------------------------]
g-9-9-9-9-9-9-------11-9-11-----------------------]
d-------------11----------------------------------]
a-------------------------------------------------]
e-------------------------------------------------]

e-------------------------------------------------]
b----------------------9--------------------------]
g-11-11-11-11-11-11-8----11-9-8-------------------]
d-------------------------------------------------]
a-------------------------------------------------]
e-------------------------------------------------]

e---------------------------------9---------------]
b-------9-12-11-------9-12-11--12-----------------]
g-------------------------------------------------]
d-11-11---------11-11-----------------------------]
a-------------------------------------------------]
e-------------------------------------------------]

e----12-9----9--------9---------------------------]
b-12------12----12-12----9h10p9-------9-12--------]
g-------------------------------9---9-------------]
d-------------------------------------------------]
a-------------------------------------------------]
e-------------------------------------------------]

e-9----12-9----9----------------------------16----]
b---12------12-----12-12----12-13--13-13-16-------]
g------------------------13-----------------------]
d-------------------------------------------------]
a-------------------------------------------------]
e-------------------------------------------------]

e-------------------------------------------------]
b-----------------------------------------9----9--]
g----9-9-9--9-9-9-9-------9-9--9-9-9--------11----]
d-11----------------11---------------11-----------]
a-------------------------------------------------]
e-------------------------------------------------]

e-------------------------------------------------]
b-----------------9-------------------------------]
g-9-9-9-9-9-9-------11-9-11-----------------------]
d-------------11----------------------------------]
a-------------------------------------------------]
e-------------------------------------------------]

e-------------------------------------------------]
b----------------------9--------------------------]
g-11-11-11-11-11-11-8----11-9-8-------------------]
d-------------------------------------------------]
a-------------------------------------------------]
e-------------------------------------------------]

e-------------------------------------------------]
b-------9-12-11-------9-12-11--12-14--------------]
g-------------------------------------------------]
d-11-11---------11-11-----------------------------]
a-------------------------------------------------]
e-------------------------------------------------]

e----------12--16-14-12-11--------------12--------]
b-14-12-14------------------14-14-12-14-----------]
g-------------------------------------------------]
d-------------------------------------------------]
a-------------------------------------------------]
e-------------------------------------------------]

e-12-14-12-11--11--------16-14-12-11--11h12p11----]
b-----------------14-12------------------------14-]
g-------------------------------------------------]
d-------------------------------------------------]
a-------------------------------------------------]
e-------------------------------------------------]

e------------------------------------9------------]
b-------9-12-11---------9-12-11---12--------------]
g-------------------------------------------------]
d-11-11-----------11-11---------------------------]
a-------------------------------------------------]
e-------------------------------------------------]

e----12-9----9--------9---------------------------]
b-12------12----12-12----9h10p9------9-12---------]
g-------------------------------9--9--------------]
d-------------------------------------------------]
a-------------------------------------------------]
e-------------------------------------------------]

e-9----12-9----9----------------------------16----]
b---12------12----12-12----12-13---13-13-16-------]
g-----------------------13------------------------]
d-------------------------------------------------]
a-------------------------------------------------]
e-------------------------------------------------]

e-------------------------------------------------]
b----------------14-------------------------------]
g-------------------16-14-13-------13-13-13-------]
d-14-14-14-13-14-------------16-16----------------]
a-------------------------------------------------]
e-------------------------------------------------]

e-------------------------------------------------]
b--------------------------------14---------------]
g----13-13-13-----------------------16-14-13------]
d-16-----------16-14-14-14-13-14-------------16---]
a-------------------------------------------------]
e-------------------------------------------------]

e-------------------------------------------------]
b-------------------------------------------------]
g-------------------------------------------------]
d-13h14p13----------------------------------------]
a----------16-------------------------------------]
e-------------------------------------------------]
Добавлено: 15.02.2016
Другие материалы по этой песне:

Страница создана 10.03.2012
http://primanota.ru/misc-computer-games/mega-man-2-dr-wilys-castle-stage-1-chords.htm
Привет, Гость.
Предлагаем пройти революционный курс по гитаре.
Подарок от PrimaNota.Ru, забирай!