PrimaNota.ru - самый крупный в мире бесплатный архив песенных текстов, аккордов, табулатур и нот


Misc Computer Games - Legend Of Zelda - Market - таба, видео

Регистрация Запомнить меня
Войти через:  Facebook Google Twitter Vk Yandex Mail.ru

Misc Computer Games - Legend Of Zelda - Market - таба, видео

Печатать
Просмотров: 96
This is a tab for the theme from the market in Hyrule in the Ocarina of Time.
It's only got two parts that are repeated through it. ok here we go.....


Part 1
e|-------------------------------------12-14-15--------------------------------|
B|----15---15--15-13-12-13----15---15-----------15------15---15--15-13-12-13---|
G|-----------------------------------------------------------------------------|
D|-----------------------------------------------------------------------------|
A|-----------------------------------------------------------------------------|
E|-----------------------------------------------------------------------------|

e|---------------------------------------------------------------------------|
B|---15--13-12-13-12---------------------------------------------------------|
G|--------------------14-12--------------------------------------------------|
D|---------------------------------------------------------------------------|
A|---------------------------------------------------------------------------|
E|---------------------------------------------------------------------------|

Part 2

e|---------------------------------------------------------------------------|
B|--------------------12-----------12-13-12---------12-----------------------|
G|---14---14-14-12-14----14----14------------14-12------14-------------------|
D|---------------------------------------------------------------------------|
A|---------------------------------------------------------------------------|
E|---------------------------------------------------------------------------|

                                                   
e|---------------------------------------------------------------------------|
B|--------------------12-----------------12-13-15-13-12----------------------|
G|---14---14-14-12-14----14-----------14----------------14-------------------|
D|---------------------------------------------------------------------------|
A|---------------------------------------------------------------------------|
E|---------------------------------------------------------------------------|

e|---------------------------------------------------------------------------|
B|--------------------12-----------12-13-12---------12-----------------------|
G|---14---14-14-12-14----14----14------------14-12------14-------------------|
D|---------------------------------------------------------------------------|
A|---------------------------------------------------------------------------|
E|---------------------------------------------------------------------------|

e|---------------------------------------------------------------------------|
B|--------------------12-----------------12-13-15----------------------------|
G|---14---14-14-12-14----14----14-----14-------------------------------------|
D|---------------------------------------------------------------------------|
A|---------------------------------------------------------------------------|
E|---------------------------------------------------------------------------|

Just repeat those parts whenever needed.

Добавлено: 06.05.2012
Другие материалы по этой песне:
  • Аккорды и текст

Страница создана 06.05.2012
http://primanota.ru/misc-computer-games/legend-of-zelda-market-chords.htm
Привет, Гость.
Предлагаем пройти революционный курс по гитаре.
Подарок от PrimaNota.Ru, забирай!