PrimaNota.ru - самый крупный в мире бесплатный архив песенных текстов, аккордов, табулатур и нот


Misc Computer Games - Fairy Fountain - таба, видео

Регистрация Запомнить меня
Войти через:  Facebook Google Twitter Vk Yandex Mail.ru

Misc Computer Games - Fairy Fountain - таба, видео

Печатать
Просмотров: 110
Legend of Zelda: Ocarina of Time (N64)

Fairy Fountain (Classical Arrangement)

Original Composer: Koji Kondo

Tabbed by: Charlie Shortman (cwjs0)

19:29 07/10/2008

The Harp Intro - Not completely right but near enough - Rake down

e |------------0------3------6------------0--|
B |-----3-----3------3------6------3-----3---|
G |----3-----3------0------7------3-----3----|
D |---0-----2------2------8------0-----0-----|
A |--1-----1------1------8------1-----1------|
E |---------------------6--------------------|






e |---------------------------------------------------------------------|
B |---------------------------------------------------------------------|
G |-----2-------0---------------0---------------------------------------|
D |-------0-------0-----4p0-------0------5-------3---------------3------|
A |--1------1-1-----1-1-----1-1-----1------3-------3-----7p3-------3----|
E |------------------------------------5-----5-5-----5-5-----5-5-----5--|

e |-------------------------------------------------------------------------|
B |-------------------------------------------------------------------------|
G |-------------------------------------------------------------------------|
D |----3-------2-------1(OR 0)-------2-------2-------0---------------0------|
A |------1-------1-------------1-------1-------0-------0-----4p0-------0----|
E |--3-----3-3-----3-3-----------3-3-----3-1-----1-1-----1-1-----1-1-----1--|

e |--------------------------------------------------------------------|
B |--------------------------------------------------------------------|
G |----2-------0---------------0--------3-------2-------1-------2------|
D |------0-------0-----4p0-------0--------0-------0-------0-------0----|
A |--1-----1-1-----1-1-----1-1-----1--0-----0-0-----0-0-----0-0-----0--|
E |--------------------------------------------------------------------|

e |--------------------------------------------------------------------------|
B |--------------------------------------------------------------------------|
G |----5-------3---------------3---------2-------0---------------------------|
D |------3-------3-----7p3-------3---------0-------0-----3p0-----2p0---------|
A |------------------------------------3-----3-3-----3-3-----3-3-------------|
E |--3-----3-3-----3-3-----3-3-----3-----------------------------------------|
Добавлено: 04.06.2012
Другие материалы по этой песне:
  • Аккорды и текст

Страница создана 04.06.2012
http://primanota.ru/misc-computer-games/fairy-fountain-chords.htm
Привет, Гость.
Предлагаем пройти революционный курс по гитаре.
Подарок от PrimaNota.Ru, забирай!