PrimaNota.ru - самый крупный в мире бесплатный архив песенных текстов, аккордов, табулатур и нот


Misc Computer Games - Contra - Aliens Lair - таба, бас-таба, видео

Регистрация Запомнить меня
Войти через:  Facebook Google Twitter Vk Yandex Mail.ru

Misc Computer Games - Contra - Aliens Lair - таба, бас-таба, видео

Печатать
Просмотров: 143
Gtr I (E A D G B E) 
Gtr II (E A D G B E)

  Q=132
  Gtr I
  W        +Q   Q     W         +Q   Q    W        +Q   Q     W         +Q   Q
|------------------|--------------------|------------------|-------------------|
|-7--------(7)-----|-13--------(13)-----|-9--------(9)-----|-15--------(15)----|
|-6--------(6)-----|-12--------(12)-----|-8--------(8)-----|-14--------(14)----|
|------------------|--------------------|------------------|-------------------|
|------------------|--------------------|------------------|-------------------|
|------------------|--------------------|------------------|-------------------|


 5/8                     6/8
   E  +S   E  +S   E  E    E  Q   S  S  S  S  S  S
|-----------------------|--------------------------|
|-----------------------|--------------------13----|
|---------------------8-|----10--------------------|
|------------------8----|-----------------10----10-|
|----------6--(6)-------|------------8--8----------|
|--6--(6)---------------|--8------8----------------|
|
| Gtr II
|  E  +S   E  +S   E  E    E  Q   S  S  S  S  S  S
|-----------------------|--------------------17----|
|-----------------------|--------------------------|
|--------------------11-|----14-----------14----14-|
|-----------------13----|--------------------------|
|-----------------------|-----------17-17----------|
|-11-(11)-14-(14)-------|-11-----17----------------|


 5/8                     6/8
   E  +S   E  +S   E  E    E  Q   S  S  S  S  S  S
|-----------------------|--------------------------|
|-----------------------|--------------------13----|
|---------------------8-|----10--------------------|
|------------------8----|-----------------10----10-|
|----------6--(6)-------|------------8--8----------|
|--6--(6)---------------|--8------8----------------|
|
|  E  +S   E  +S   E  E    E  Q   S  S  S  S  S  S
|-----------------------|--------------------17----|
|-----------------------|--------------------------|
|--------------------11-|----14-----------14----14-|
|-----------------13----|--------------------------|
|-----------------------|-----------17-17----------|
|-11-(11)-14-(14)-------|-11-----17----------------|


  S  S  S   S  S  S  S  S  S  S
|-------------------------------|
|---11--9-----------------------|
|----------11-10--8-------------|
|-8-----------------11-10--8----|
|----------------------------11-|
|-------------------------------|
|
| E    +S   S  S  S  S  S  S  S
|-------------------------------|
|----------11--9----------------|
|----------------11-10--8-------|
|-8----(8)----------------11-10-|
|-------------------------------|
|-------------------------------|


  S  S S  S  S  S  S  S  S  S   S  S S  S  S  S  S  S  S  S
|-----------------------------|-----------------------------|
|---11-9----------------------|---11-9----------------------|
|--------11-10--8-------------|--------11-10--8-------------|
|-8---------------11-10--8----|-8---------------11-10--8----|
|--------------------------11-|--------------------------11-|
|-----------------------------|-----------------------------|
|
| S  S S  S  S  S  S  S  S  S   S  S S  S  S  S  S  S  S  S
|-----------------------------|-----------------------------|
|--------11--9----------------|--------11--9----------------|
|--------------11-10--8-------|--------------11-10--8-------|
|-8----8----------------11-10-|-8----8----------------11-10-|
|---11------------------------|---11------------------------|
|-----------------------------|-----------------------------|


  S  S S  S  S   S S S E E   S  S S  S  S   S S S E E
|--------------------------|--------------------------|
|--------------------------|--------------------------|
|--------------------------|--------------------------|
|---10---10-----10---8-----|---10---10-----10---7-----|
|--------------------------|--------------------------|
|-8----8-----8-----6---6-6-|-8----8-----8-----5---5-5-|
|
| Q         +E     S S E E   Q         +E     S S E E
|--------------------------|--------------------------|
|-8---------(8)------------|-7---------(7)------------|
|--------------------------|--------------------------|
|--------------------8-----|--------------------7-----|
|--------------------------|--------------------------|
|------------------6---6-6-|------------------5---5-5-|


  S  S S  S  S   S S S E E   S S  S S S S S S S S S S
|--------------------------|----------------------------|
|--------------------------|----------------------------|
|--------------------------|-8------7-----6-----5-------|
|---10---10-----10---6-----|---8------7-----6-5---6-----|
|--------------------------|-----10-----9-----------6---|
|-8----8-----8-----4---4-4-|----------------------------|
|
| Q         +E     S S E E   S S  S S S S S S S S S S
|--------------------------|----------------------------|
|-6---------(6)------------|----------------------------|
|--------------------------|----------------------------|
|--------------------6-----|----------------------------|
|--------------------------|-6------5-----4---------6---|
|------------------4---4-4-|---6--3---5-2---4-3-8-7-----|


  S  S S  S  S   S S S E E   S  S S  S  S   S S S E E
|--------------------------|--------------------------|
|--------------------------|--------------------------|
|--------------------------|--------------------------|
|---10---10-----10---8-----|---10---10-----10---7-----|
|--------------------------|--------------------------|
|-8----8-----8-----6---6-6-|-8----8-----8-----5---5-5-|
|
| Q         +E     S S E E   Q         +E     S S E E
|--------------------------|--------------------------|
|-8---------(8)------------|-7---------(7)------------|
|--------------------------|--------------------------|
|--------------------8-----|--------------------7-----|
|--------------------------|--------------------------|
|------------------6---6-6-|------------------5---5-5-|


  S S S S S S E S  E  +S     S  S  S  S  S  S  E  E  S  S
|-------------------------|--------------------------------|
|-------------------------|-----------------------------8--|
|-------------------------|--------------------------8-----|
|-------------------------|--6--6--6--6--6--6--6--8--------|
|-------------------------|--------------------------------|
|-4-4-4-4-4-4-4-4--6--(6)-|--------------------------------|
|
| S S S S S S E S  E  +S     S  S  S  S  S  S  E  E  S  S
|-------------------------|--------------------------------|
|-------------------------|----------------------------11--|
|-------------------------|-------------------------12-----|
|-------------------------|-11-11-11-11-11-11-11-13--------|
|-------------------------|--------------------------------|
|-9-9-9-9-9-9-9-9-11-(11)-|--------------------------------|


   S  S  S  S  S  S  S  S  S  S  S  S  S  S
|-11-11-11----------10-10--------9--9-------|
|----------11-11-11-------11-11--------9--9-|
|-------------------------------------------|
|-------------------------------------------|
|-------------------------------------------|
|-------------------------------------------|
|
|  S  S  S  S  S  S  S  S  S  S  S  S  S  S
|-------------------------------------------|
|-------------------------------------------|
|-11-11-11----------11-11-------10-10-------|
|----------13-13-13-------12-12-------11-11-|
|-------------------------------------------|
|-------------------------------------------|


   S  S  S  S  S  S  S  S  S  S  S  E  +S
|-11-11-11----------13-13-------14-16-(16)-|
|----------11-11-11-------13-13------------|
|------------------------------------------|
|------------------------------------------|
|------------------------------------------|
|------------------------------------------|
|
|  S  S  S  S  S  S  S  S  S  S  S  E  +S
|------------------------------------------|
|-------------------------------11-14-(14)-|
|-11-11-11----------13-13-11-11------------|
|----------13-13-13------------------------|
|------------------------------------------|
|------------------------------------------|


Добавлено: 09.05.2015
Другие материалы по этой песне:

Страница создана 21.04.2012
http://primanota.ru/misc-computer-games/contra-aliens-lair-chords.htm
Привет, Гость.
Предлагаем пройти революционный курс по гитаре.
Подарок от PrimaNota.Ru, забирай!