PrimaNota.ru - самый крупный в мире бесплатный архив песенных текстов, аккордов, табулатур и нот


Misc Computer Games - Chrono Cross - Prisoners Of Fate - таба, видео

Регистрация Запомнить меня
Войти через:  Facebook Google Twitter Vk Yandex Mail.ru

Misc Computer Games - Chrono Cross - Prisoners Of Fate - таба, видео

Печатать
Просмотров: 115
I noticed no one else had a regular tab for this, so here it is.  It's really sad and 
great with
low distortion, echo, chorus, and plenty of reverb.
Enjoy!

E|-----------------------------------------------------------------------------|
B|--------------------------------(4--8—-6)------------------------------------|
G|7-----3--------7-------------------------------------------------------------|
D|----------------------8-----5------------------------------------------------|
A|-----------------------------------------------------------------------------|
E|-----------------------------------------------------------------------------|

E|-----------------------------------------------------------------------------|
B|-------8--6-------9--9--8-6--------------------------------------------------|
G|5--7-8------5--7-------------7-8--0-5--3-------------------------------------|
D|-----------------------------------------------------------------------------|
A|-----------------------------------------------------------------------------|


E|---------------15------------16-16--15---------------------15----------------|
B|--------15-16-----18--15-16-------------18--16--18--15--16-------------------|
G|15--17-----------------------------------------------------------------------|
D|-----------------------------------------------------------------------------|
A|-----------------------------------------------------------------------------|


E|-15-----------------------15---------16-15-----------------------------------|
B|------18--15------15--18------16-15---------18--16--15-16----16-16--18--15---|
G|----------------------------------------------------------17-----------------|
D|-----------------------------------------------------------------------------|
A|-----------------------------------------------------------------------------|
E|-----------------------------------------------------------------------------|

E|-----------------------------------------------------------------------------|
B|-----------------------------------------------------------------------------|
G|17~~~~~~~15~~~~~~~17~~~~~~~~-------------------------------------------------|
D|-----------------------------------------------------------------------------|
A|----------------------I don't know the acoustic part here -------------------|
E|-----------------------------------------------------------------------------|
Добавлено: 22.07.2012
Другие материалы по этой песне:
  • Аккорды и текст

Страница создана 22.07.2012
http://primanota.ru/misc-computer-games/chrono-cross-prisoners-of-fate-chords.htm
Привет, Гость.
Предлагаем пройти революционный курс по гитаре.
Подарок от PrimaNota.Ru, забирай!