PrimaNota.ru - самый крупный в мире бесплатный архив песенных текстов, аккордов, табулатур и нот


Misc Cartoons - My Little Pony Friendship Is Magic - Shake Your Tail - таба, видео

Регистрация Запомнить меня
Войти через:  Facebook Google Twitter Vk Yandex Mail.ru

Misc Cartoons - My Little Pony Friendship Is Magic - Shake Your Tail - таба, видео

Печатать
Просмотров: 161
Title: Shake Your Tail
SubTitle: My Little Pony - Equestria Girls : Rainbow Rocks
Artist: Daniel Ingram
Album: Equestria Girls : Rainbow Rocks Soundtrack
Copyright: Hasbro
Tabber: Mezzo Forte
Tempo = 120
Key : D major (D,Em,F#m,G,A,Bm,C#dim,D) most of this song will use D, D/F#, A, Bm, Bm7
Tuning: EADGBE (Standard)
This is a fingerstyle Piece, staccato to your liking :) cheers! 

D    D/F#   A     Bm      Bm7

-2----2-------------------5--
-3----3-----2-----3-------3--
-2----2-----2-----4-------2--     -CHORDS
-0----0-----2-----4-------4--
------------0-----2-------2--
------2----------------------





  (we just....)                                     
E |--------0.-2.----2.-2.------|--0.----0.----2.------------|
B |--3.-3.-3.-3.----3.-3.------|-----3.-------3.-------3.---|
G |--2.-2.-------2.------------|--------------------2.-2.---|
D |-----------0.-------0.------|--------------0.------------|
A |----------------------------|----------------------------|
E |----------------------------|-----2.---------------------|

  (and there's only...)                                                     
-----------5.-5.-2.---------|--0--------0.-2.----2.-2L---|
--3.-3.-3.----------5.-3.---|--2-----3.-3.-3.----3.-3L---|
--2.------------------------|--2-----2.-------2.---------|
-----------------4.---------|--2-----------0.-------0L---|
-----------2.----------2.---|--0-------------------------|
----------------------------|----------------------------|

 (here to party...)                                                         
--2--0.----0.----2.---------|--------------5.-5.-2.------|
--3-----3.-------3.---------|--3.-3.-3.-3.----------5.---|
-----------------------2.---|--2.-2.---------------------|
--0--------------0.---------|--------------------4.------|
----------------------------|--------------2.------------|
--------2.------------------|----------------------------|

 (to do,            we don't know....)                                                         
-----0--------------5--5----|--2--------------------2L---|
--3.-2----------------------|--------------5--3--5-------|
-----2----------------------|----------------------------|
-----2-----------2----------|--4-------------------------|
--2.-0--------------2-------|--------------2--------2----|
----------------------------|----------------------------|

        (we just know..)                                                  
--2L----2--5--5--2----------|--------2-------------------|
-----------------------5----|--5--5-----5--3--3L-3--3----|
----------------------------|----------------------------|
-----------------4----------|----------------------------|
-----------2-----------2----|-----2-----------2----------|
----------------------------|----------------------------|

 (our friends are here...)                                                         
-----------0----------------|-----------0-----0----------|
-----3--3--------------3----|-----3--3--------------3L---|
--4-------------------------|--4-------------------------|
----------------------------|----------------------------|
--2--------2----------------|--2--------2----------------|
----------------------------|----------------------------|

(time to ignite...)                           (shake your)          
-----------5-----5-----2L---|--2--2L-2--------2-----5L---|
--3--3L-3-------------------|-----------------3-----3L---|
----------------------------|-----------------2--2--2L---|
-----------0-----------0----|-----------------0-----0----|
----------------------------|----------------------------|
----------------------------|----------------------------|

    (tail cuz we're here....)                   (shake)                                    
--5--2-----0-----0.-0.-0.---|--2.-0.---------------------|
--3--3-----3--3--2.-2.-2.---|--3.-2.-2-----3L-3--3.------|
--2--2-----2--2--2.-2.-2.---|--2.-2.-2-----2L-2--2.------|
----------------------------|--------------0L-0----------|
-----0-----0-----0.----0.---|--------0-------------------|
----------------------------|--------------------2.------|

(your  tail,     shake your     tail)           (shake)                                             
--0.----2L----2.-------0L---|--0--2.----0.-------2-------|
--3.----3L----3.-3.----3L---|--3--3.----3.-3L-3--3-------|
--------2L----2.-2.---------|-----2L----2.-2L-2--2--2----|
--------0.------------------|-----0.---------------------|
--0.-------------------0L---|--0--------0.---------------|
-----------------2.---------|--------------2L-2--2-------|

(your tail...)                                                          
--5-----2-----0-----0.-0.---|--0.-2.-0.------------------|
--3-----3-----3--3--2.-2.---|--2.-3.-2.-2-----3L-3--3L---|
--2-----2-----2--2--2.-2.---|--2.-2.-2.-2-----2L-2--2L---|
----------------------------|-----------------0L-0-------|
--------0-----0-----0.------|--0.-------0----------------|
--2-------------------------|-----------------------2L---|

    (your      tail)                                                        
-----0.----2L----2.---------|--0.----2.----0.------------|
--3--3.----3L----3.-3.------|--3.----3.----3.-3L-3.------|
--2--------2L----2.-2.------|--------2L----2.-2L-2.------|
-----------0.---------------|--------0.------------------|
-----0.---------------------|--0.----------0.------------|
--2-----------------2.------|-----------------2.---------|

(so what you...)                           (laugh it off..)              
----------------------------|--------0-----5--2--2-------|
--3-----3--------3--3--3----|--3--3----------------------|
-----4--------4-------------|----------------------------|
----------------------------|--------------------4-------|
--2-----2--------2-----2----|--2-----------2-------------|
----------------------------|----------------------------|

                              (do your thing...)                            
--5--2--2--2--2--2--5-------|-----------------2--2--2----|
----------------------------|--3-----3-----3-------------|
----------------------------|-----4----------------------|
--------4-----4-------------|----------------------------|
--2-------------------------|--2-----------------2-------|
----------------------------|----------------------------|

                 (your ideas...)                                         
--2--0--------------5-------|--2-----0-----0--0--0--2----|
--------3--3-----3----------|-----------3----------------|
----------------------------|----------------------------|
----------------------------|----------------------------|
--2--------------2----------|--2-----------2--------2----|
----------------------------|----------------------------|

             (oh               oh)         (we just got..)                                              
--0-----------5-------------|--2-----------------0.-2.---|
-----3--3-----2-------------|--2-----------3.-3.-3.-3.---|
--------------2-------------|--2-----------2.-2.---------|
--------------2-------------|--2--------------------0.---|
--------------0-------------|--0-------------------------|
----------------------------|----------------------------|

              (to get ready)                                                
-----2.-2.----0.----0.------|--2.-------------------5.---|
-----3.-3.-------3.---------|--3.-------3.-3.-3.-3.------|
--2.------------------------|--------2.-2.-2.------------|
--------0.------------------|--0.------------------------|
----------------------------|-----------------------2.---|
-----------------2.---------|----------------------------|

(so much time...)                                     
--5.-2.-------0--------0.---|--2.----2.-2L-2--0.----0L---|
--------5.-3.-2-----3.-3.---|--3.----3.-3L-3-----3.------|
--------------2-----2.------|-----2.---------------------|
-----4.-------2-------------|--0.-------0L-0-------------|
-----------2.-0-------------|----------------------------|
----------------------------|--------------------2.------|


--0--2L-2-------------------|--5.-5.-2.-------0L---------|
-----3L-3-----3.-3.-3.-3.---|-----------5.-3.-2L---------|
-----------2.-2.-2.---------|-----------------2L---------|
-----0L-0-------------------|--------4.-------2L---------|
----------------------------|--2.----------2.-0L---------|
----------------------------|----------------------------|

       (we don't know...)
--0-----5--5--2-------------|-----------2L-2L----2--5----|
--2-------------------------|--5--3--5-------------------|
--2-------------------------|----------------------------|
--2--2--------4-------------|----------------------------|
--0-----2-------------------|--2--------2-----------2----|
----------------------------|----------------------------|

(just know....)
--5--2L-2-----------2-------|-----------------------0L---|
-----------5--5--5-----5----|--3--3L-3--3-----3--3-------|
----------------------------|--------------4-------------|
-----4L-4-------------------|----------------------------|
-----------2-----2----------|-----2--------2--------2L---|
----------------------------|----------------------------|

   (are here....)
--0L----0--------------0L---|--0--0L-0--------------5L---|
-----------3-----3--3-------|-----------3L-3--3L-3-------|
--------------4-------------|----------------------------|
----------------------------|----------------------------|
--2L----2-----2--------2L---|--2--------------------2L---|
----------------------------|----------------------------|

(the light....)                  (shake your....)
--5--5L-5--2L-2--2L-2L------|--2--2-----5L-5--2-----0----|
----------------------------|-----3-----3L-3--3-----3----|
----------------------------|-----2--2--2L-2--2-----2----|
-----------0----------------|----------------------------|
--2-------------------------|-----------------0-----0----|
----------------------------|-----2-----2L-2-------------|

(cuz we're here....)               (shake  your tail)
-----0.-0.-0.-2.-0.---------|--------------0.----2L------|
--3--2.-2.-2.-3.-2.-2-------|--3L-3--3.----3.----3L------|
--2--2.-2.-2.-2.-2.-2-------|--2L-2--2.----------2L------|
----------------------------|--0L-0--------------0.------|
-----0.----0.-------0-------|--------------0.------------|
----------------------------|--------2.------------------|

    (shake your tail)
--2.-------0L-0--2.----0.---|--------2-----5-----2-------|
--3.-3L-3--3L-3--3.----3.---|--3L-3--3-----3-----3-------|
--2.-2L-2--------2L----2.---|--2L-2--2--2--2-----2-------|
-----------------0.---------|----------------------------|
-----------0L-0--------0.---|--------------------0-------|
-----2L-2-------------------|--2L-2--5-----2-------------|

(cuz we're here..)                     (shake your tail)
--0-----0.-0.-0.-2.-0.------|-----------------0.----2L---|
--3--3--2.-2.-2.-3.-2.-2L---|--2--3L-3--3L-3--3.----3L---|
--2--2--2.-2.-2.-2.-2.-2L---|--2--2L-2--2L-2--------2L---|
----------------------------|-----0L-0--------------0L---|
--0-----0.----0.-------0L---|--0--------------0.---------|
----------------------------|-----------2L-2-------------|

        (shake your tail)              (shake your tail)
--2L-2.-------0.----2.------|--0.-------2-----5-----2L---|
--3L-3.-3.----3.----3.------|--3.-3L-3.-3-----3-----3L---|
--2L-2.-2.----------2L------|--2.-2L-2.------------------|
--0-----------------0.------|----------------------------|
--------------0.------------|--0.------------------------|
--------2.------------------|-----2.---------------------|

(cuz we're here to have a party tonight)
--2--0-----0.-0.-0.-2.-0.---|----------------------------|
--3--3--3--2.-2.-2.-3.-2.---|--2L-2--3-------------------|
--------2-------------------|--2L-2--2.------------------|
----------------------------|----------------------------|
----------------------------|----------------------------|
----------------------------|----------------------------|
Добавлено: 30.09.2015
Другие материалы по этой песне:

Страница создана 30.09.2015
http://primanota.ru/misc-cartoons/my-little-pony-friendship-is-magic-shake-your-tail-chords.htm
Привет, Гость.
Предлагаем пройти революционный курс по гитаре.
Подарок от PrimaNota.Ru, забирай!