PrimaNota.ru - самый крупный в мире бесплатный архив песенных текстов, аккордов, табулатур и нот


Misc Cartoons - Owari No Seraph - Seraph Of The End - Scapegoat Ed - таба

Регистрация Запомнить меня
Войти через:  Facebook Google Twitter Vk Yandex Mail.ru

Misc Cartoons - Owari No Seraph - Seraph Of The End - Scapegoat Ed - таба

Печатать
Просмотров: 483
-------------------------------------------------------------------------------
                             Owari no Seraph ED
-------------------------------------------------------------------------------
Tabbed by: wahalrus
E-mail: MCwalrus308@gmail.com

Tuning: It depends. If you play along to the short version used at the end of 
each episode, then Eflat.  If you play along to the full version, it's standard.

Intro:
      C#m                    B 
e|-------------0----------------------0--------------------------------------|
B|--------2-2-2---0---0h2--------2-2-2---0---0h2-----------------------------|
G|---------------------------------------------------------------------------|
D|---------------------------------------------------------------------------|
A|----4----4-4---------------2----2-2----------------------------------------|
E|---------------------------------------------------------------------------|

Verse:
      C#m                    C#m 
e|-------------0----------------------0--------------------------------------|
B|--------2-2-2---0---0h2--------2-2-2---0---0h2-----------------------------|
G|---------------------------------------------------------------------------|
D|---------------------------------------------------------------------------|
A|----4----4-4---------------4----4-4----------------------------------------|
E|---------------------------------------------------------------------------|

      B                      B 
e|-------------0----------------------0--------------------------------------|
B|--------2-2-2---0---0h2--------2-2-2---0---0h2-----------------------------|
G|---------------------------------------------------------------------------|
D|---------------------------------------------------------------------------|
A|----2----2-2---------------2----2-2----------------------------------------|
E|---------------------------------------------------------------------------|

      G#m                    A 
e|-------------0----------------------0--------------------------------------|
B|--------2-2-2---0---0h2--------2-2-2---0---0h2-----------------------------|
G|---------------------------------------------------------------------------|
D|---------------------------------------------------------------------------|
A|---------------------------0----0-0----------------------------------------|
E|----4----4-4---------------------------------------------------------------|

      E                      F#m
e|-------------0----------------------0--------------------------------------|
B|--------2-2-2---0---0h2--------2-2-2---0---0h2-----------------------------|
G|---------------------------------------------------------------------------|
D|---------------------------------------------------------------------------|
A|---------------------------------------------------------------------------|
E|----0----0-0---------------2----2-2----------------------------------------|

Now the guitar part plays a volume swelling lead notes while the piano plays chords.
I tend to lightly strum the chords when I play along, but I'll tab out the lead bit too if you're interested.

Chords:
  A
I need your blood
    B
You really love to writhe
   C#m            A
Agaku red line

  F#*                                 
Kakiwaketa mihon to
  A
Kojiageta rizuma ga
     E                 F#*
Tada heikou ni narabu

*don't play the G string and make it minor or major
just play it as
e|2
B|2
G|x
D|4
A|4
E|2
I play this with my thumb playing the low F#, ring and pinky on the A and D strings, 
and my first finger barring the e and B.

Lead part:
e|-----9~---7~----9~---7~--------|
First line gets the C#, next line gets the B, then the C#, then the B, and then it goes silent for the rest.
Just swell in every note with your volume knob and don't be afraid of vibrato.


For the chorus, I'll just put in the chords, you can listen to it and figure out the rhythm.
I play them all as power chords.

Chorus: 
                  C#m
Come and break it down for me
                B
I'll lead the way home
         A
Kigani hoshi demo
       B
Negai nasazu

            C#
Sange sae kawaita
        B
Yogoshi ga
           A
Kanadeta hito nara
    F#        G#        A    B
Komorebi no haka ga sawagu


The song goes:
Intro
Verse
Chorus
Intro
Verse
Chorus

Nice and simple.

Please comment, rate, make suggestions, etc.
Check out my soundcloud too, I may be posting a guitar cover of this song soon since it's so amazing.
soundcloud.com/wahalrus
Добавлено: 30.09.2015
Другие материалы по этой песне:
  • Аккорды и текст

Страница создана 30.09.2015
http://primanota.ru/misc-cartoons/owari-no-seraph-seraph-of-end-scapegoat-ed-chords.htm
Привет, Гость.
Предлагаем пройти революционный курс по гитаре.
Подарок от PrimaNota.Ru, забирай!