PrimaNota.ru - самый крупный в мире бесплатный архив песенных текстов, аккордов, табулатур и нот


Misc Cartoons - Spongebob Squarepants - The Mob - таба, видео

Регистрация Запомнить меня
Войти через:  Facebook Google Twitter Vk Yandex Mail.ru

Misc Cartoons - Spongebob Squarepants - The Mob - таба, видео

Печатать
Просмотров: 42
-------------------------------------------------------------------------------
                             The Mob - SpongeBob
-------------------------------------------------------------------------------
Tabbed by:Ben L. 


Tuning: Standard

e|-------------------------------------|--------------------------------------|
B|-------------------------------------|--------------------------------------|
G|-------------------------------------|--------------------------------------|
D|-------------------------------------|--------------------------------------|
A|-------------------------------------|--------------------------------------|
E|----0--0--3--0--5--3--0--------------|----0--0--3--0--5--3--0---------------|



e|-------------------------------------|-------------------------------------|
B|-------------------------------------|-------------------------------------|
G|----9--------------------------------|-------------------------------------|
D|-------9--11--12--11--9--------------|----/5-------------------------------|
A|-------------------------------------|--------7----------------------------|
E|-------------------------------------|-----------5--3--0-------------------|
Добавлено: 18.04.2016
Другие материалы по этой песне:
  • Аккорды и текст

Страница создана 18.04.2016
http://primanota.ru/misc-cartoons/spongebob-squarepants-mob-chords.htm
Привет, Гость.
Предлагаем пройти революционный курс по гитаре.
Подарок от PrimaNota.Ru, забирай!