PrimaNota.ru - самый крупный в мире бесплатный архив песенных текстов, аккордов, табулатур и нот


Misc Cartoons - Powerpuff Girls - Ending Theme - таба, видео

Регистрация Запомнить меня
Войти через:  Facebook Google Twitter Vk Yandex Mail.ru

Misc Cartoons - Powerpuff Girls - Ending Theme - таба, видео

Печатать
Просмотров: 34
-------------------------------------------------------------------------------
                             SONG NAME - Powerpuff Girls Ending Theme
-------------------------------------------------------------------------------
Tabbed by: rpandey1992
E-mail: rpandey1992@gmail.com

Tuning: Standard

e|-------------------------|--------------------------|---------------------------|---------------|
B|---3---------1--1-1-3----|---3----------1--1-1-3----|---3-3-3-------1--1-1-3----|---------------|
G|----2--2-2-2----------2--|-----2--2-2-2----------2--|---------2-2-2----------2--|----------0-2--|
D|-------------------------|--------------------------|---------------------------|-3-3-3--3------|
A|-------------------------|--------------------------|---------------------------|---------------|
E|-------------------------|--------------------------|---------------------------|---------------|

e|-------------------------------------|----------------------------------------------------------|
B|-------------------------------------|----------------------------------------------------------|
G|---2---2---2---2-4-2-0---0---0-2---2-|-2---2---0------------------------------------------------|  x 2
D|-----4------4--------------4-----4---|---3---0--------------------------------------------------|
A|-------------------------------------|----------------------------------------------------------|
E|-------------------------------------|----------------------------------------------------------|



***************************************************************************************************
If someone knows the notes for the intro, kindly edit this tab & add those notes.
***************************************************************************************************
Добавлено: 18.04.2016
Другие материалы по этой песне:
  • Аккорды и текст

Страница создана 18.04.2016
http://primanota.ru/misc-cartoons/powerpuff-girls-ending-theme-chords.htm
Привет, Гость.
Предлагаем пройти революционный курс по гитаре.
Подарок от PrimaNota.Ru, забирай!