PrimaNota.ru - самый крупный в мире бесплатный архив песенных текстов, аккордов, табулатур и нот


Misc Cartoons - Clannad - Shionari - таба

Регистрация Запомнить меня
Войти через:  Facebook Google Twitter Vk Yandex Mail.ru

Misc Cartoons - Clannad - Shionari - таба

Печатать
Просмотров: 76
Уроки эстрадного вокала в Санкт-Петербурге
Clannad
shionari
tabbed my nickasaur54321

Capo 1


  Q=76
 4/4
  Gtr I
|---|-0-7-0---0-------|---------0-7-0---|-0-7-0---0-------|-------------0-2--|
|-3-|-----0-3-----0---|-------3-------3-|-----0-3-----0-3-|-3---0---0-3-0-3--|
|---|---0---0---0---0-|-----2-0---0-3---|---0---0---0---0-|---0---2---0------|
|---|-----------------|-0-4-----0-----0-|-2-------2-------|-0-----5-2--------|
|---|-3-------3-------|-----------------|-----------------|------------------|
|---|-----------------|-----------------|-----------------|------------------|


|-0-7-0---0-------|---------0-7-2-3-|-2-3-2-0---------|-------------0-2-|
|-----0-3-----0---|-------3---------|-----0---0---0---|-----0---0-3-0-3-|
|---0---0---0---0-|-----2-0---0-3-0-|---0---0---------|---0---2---0-----|
|-----------------|-0-4-----0-------|-2-------2-4---4-|-2-----5-2-------|
|-3-------3-------|-----------------|-----------------|-----------------|
|-----------------|-----------------|-----------------|-----------------|


|-0-7-0---0-------|---------0-7-0---|-0-7-0---0-------|-------------0-2-|
|-----0-3-----0---|-------0-------3-|---0-0-3-----0-3-|-3---0---0-3-0-3-|
|---0---0---0---0-|-----2-7---0-2---|-------0---0---0-|---0---2---0-----|
|-----------------|-0-4-----0-----4-|-2-------2-------|-0-----5-2-------|
|-3-------3-------|-----------------|-----------------|-----------------|
|-----------------|-----------------|-----------------|-----------------|


|-0-7-0---0-------|---------0-7-2-3-|-2-3-2-0---------|-------------0-2-|
|-----0-3-----0---|-------3---------|-----0---0---0---|-----0---0-3-0-3-|
|---0---0---0---0-|-----2-----0-2---|---0---0---------|---0---2---0-----|
|-----------------|-0-4---4-0-----4-|-2-------2-4---4-|-2-----5-2-------|
|-3-------3-------|-----------------|-----------------|-----------------|
|-----------------|-----------------|-----------------|-----------------|


|-2-3-5-7-0-------|-------0---------|-2-3-5-7-0-------|-----0---2----5---|
|-----0-------0---|-----0-------3-3-|-----0-------0---|-----0--------0---|
|---0---0---0---0-|---0---0---0-4---|---0---0---0---0-|---0---0---0----7-|
|-2-------2-------|-2-------2-------|-2-------2-------|-2-------2--------|
|-----------------|-----------------|-----------------|------------------|
|-----------------|-----------------|-----------------|------------------|


|------7-12-7-10-7-12-7-|----7--12-7----7--14--7-|----7--12--7-----7--14--7---|
|o--10----0---------0---|-10----0----10----0-----|-10-----0-----10-----0------|
|------0----0----0----0-|------------------------|----0------0-----0------0---|
|-----------------------|--0----------0----------|----------------------------|
|o----------------------|----9-----9----9------9-|--7------------7------------|
|---8----------8--------|------------------------|----------------------------|


|----7-15-----14----12-------|
|-10----0-12-----12--0-12----|
|----0-----0-----0-----8-----|
|----------------------------|
|--7-------------------------|
|-------------12-------------|


|------7-12-7-10-7-12-7-|--------12-----------14----|----7--12--7-----7--14--7---|
|---10----0---------0---|-10-12--0--12-10-12--0--12-|-10-----0-----10-----0------|
|------0----0----0----0-|---------------------------|----0------0-----0------0---|
|-----------------------|--0------------0-----------|----------------------------|
|-----------------------|----9------9------9------9-|--7------------7------------|
|---8----------8--------|---------------------------|----------------------------|


|-----7--15----17----12------|
|-10------0-12----12--0-12--o|
|-----0-----0-----0-----8----|
|----------------------------|
|-7-------------------------o|
|--------------12------------|


|----7--12-7----7-15-14-|-12----|
|-10-----0---10----0----|-------|
|----0-----0----0-----0-|-------|
|-----------------------|-------|
|--7---------7----------|-------|
|-----------------------|-12----|
Добавлено: 30.09.2015
Другие материалы по этой песне:
  • Аккорды и текст

Страница создана 30.09.2015
http://primanota.ru/misc-cartoons/clannad-shionari-chords.htm
Привет, Гость.
Предлагаем пройти революционный курс по гитаре.
Подарок от PrimaNota.Ru, забирай!