PrimaNota.ru - самый крупный в мире бесплатный архив песенных текстов, аккордов, табулатур и нот


Misc Cartoons - Ib Theme - таба, видео

Регистрация Запомнить меня
Войти через:  Facebook Google Twitter Vk Yandex Mail.ru

Misc Cartoons - Ib Theme - таба, видео

Печатать
Просмотров: 159
Ib Main Theme

Tabbed by:Alex Robbins & Soundworks
E-mail: soundworks@telus.net

Tuning: standard

E|-12--8--10--12--8--10--12--10--9--10------10--8--7--8------8--7--5--7----------------||
B|-10------------9-------------8------------7--------6----------5------4---------5-----||
G|-------------------------------------------------------------------------------------||
D|-------------------------------------------------------------------------------------||
A|-------------------------------------------------------------------------------------||
E|-------------------------------------------------------------------------------------||

E|-----------------------------------------------------|
B|-------------0--1--3---------------------------------|
G|---------2-------------------------------------------|
D|------2----------------------------------------------|
A|-0---------------------------------------------------|
E|-----------------------------------------------------|

E|-0-------------------0--------0---------------------0--------------------------------|
B|-----------------0---------------------------0--1--------------3---------------3-----|
G|------------1----------------------------2----------------------------------2--------|
D|------2-----------------------------2-----------------------------------4------------|
A|----------------------------------------------------------------------5--------------|
E|-4-----------------------------3--------------------------------2--------------------|
                               1)                    
E|-----------------------------|-------------------------------------------------------|
B|-3---------------0--1--3-----|-1---------------1-------------------------------------|
G|-----------2-----------------|-------------2----------------------------------1------|
D|------0----------------------|---------2------------------2---------------2----------|
A|-----------------------------|-----3----------------------1-------1--4---------------|
E|-1---------------------------|-0--------------------------------3--------------------|
                              2)
E|---------------------0-----|-|----------------------------------------------0--------|
B|-0------------------------*|-|-1----------------0---------------------0--------------|
G|--------------1------------|-|-------------2-------2---1---------1-------------------|
D|----------2----------------|-|---------2----------------------2----------------------|
A|------2-------------------*|-|-----3-------------------------------------------------|
E|-0-------------------------|-|-0------------------------0----------------------------|

E|-----------------------------------------------------------------------------------|-|
B|-----------------------------------------------------------------------------------|-|
G|-2-----------------------------2---------------------------------------------------|-|
D|--------------------------2--------------------------------------------------------|-|
A|-0----------0---2--3---------------------------------------------------------------|-|
E|-------0---------------------------------------------------------------------------|-|





************************************
Добавлено: 30.09.2015
Другие материалы по этой песне:
  • Аккорды и текст

Страница создана 30.09.2015
http://primanota.ru/misc-cartoons/ib-theme-chords.htm
Привет, Гость.
Предлагаем пройти революционный курс по гитаре.
Подарок от PrimaNota.Ru, забирай!