PrimaNota.ru - самый крупный в мире бесплатный архив песенных текстов, аккордов, табулатур и нот


Metric - Ending Starts - таба, видео

Регистрация Запомнить меня
Войти через:  Facebook Google Twitter Vk Yandex Mail.ru

Metric - Ending Starts - таба, видео

Печатать
Просмотров: 77
Уроки эстрадного вокала в Санкт-Петербурге
Intro:

e|--------------------------------------------------------------------|
B|--------------------------------------------------------------------|
G|--------------------------------------------------------------------| 
D|--------------------------------------------------------------------|
A|--7-----4--6-------------7-----4--6---------------------------------|
E|-----4--------7--6--4-------4--------7--6--4------------------------|

  All this that is more than a wish is a memory

e|--------------4---7---4---7---------------4-------------------------|
B|--4---5---7-------------------4---5---7------4---0------------------|
G|--------------------------------------------------------------------| 
D|--------------------------------------------------------------------|
A|--------------------------------------------------------------------|
E|--------------------------------------------------------------------|

  All this that is ceases to be

e|------------------------------5-------------------------------------|
B|--4---2---4---0---4---5---7-----------------------------------------|
G|--------------------------------------------------------------------| 
D|--------------------------------------------------------------------|
A|--------------------------------------------------------------------|
E|--------------------------------------------------------------------|

    All is revealed The obvious door opens nothing

e|---------------4---7---4---7----------------------------------------|
B|---4---5---7-------------------4---5---4---2---4---1----------------|
G|--------------------------------------------------------------------| 
D|--------------------------------------------------------------------|
A|--------------------------------------------------------------------|
E|--------------------------------------------------------------------|


  (Nothing... nothing left... nothing left... to...) 

e|--------------------------------------------------------------------|
B|---0-------0---4----------------------------------------------------|
G|-------1------------------------------------------------------------| 14x
D|--------------------------------------------------------------------|
A|--------------------------------------------------------------------|
E|--------------------------------------------------------------------|

Chance...  (here begins the chords)



How ending starts...

e|--------------------------------------------------------------------|
B|---0---5---0---4---2------5---0---4---------------------------------|
G|--------------------------------------------------------------------| 
D|--------------------------------------------------------------------|5x
A|--------------------------------------------------------------------|
E|--------------------------------------------------------------------|
Добавлено: 04.10.2013
Другие материалы по этой песне:
  • Аккорды и текст

Страница создана 04.10.2013
http://primanota.ru/metric/ending-starts-chords.htm
Привет, Гость.
Предлагаем пройти революционный курс по гитаре.
Подарок от PrimaNota.Ru, забирай!