PrimaNota.ru - самый крупный в мире бесплатный архив песенных текстов, аккордов, табулатур и нот


Metric - Youth Without Youth - текст песни, бас-таба, видео

Регистрация Запомнить меня
Войти через:  Facebook Google Twitter Vk Yandex Mail.ru

Metric - Youth Without Youth - текст песни, бас-таба, видео

Печатать
Просмотров: 37
-------------------------------------------------------------------------------
                        YOUTH WITHOUT YOUTH - METRIC
-------------------------------------------------------------------------------
Tabbed by: Skip Stomp
E-mail: skip.stomp@gmail.com

Tuning: E Standard

Verse:
G|---------------------------------|
D|---------------------------------|
A|-7-7---7-5---5-0-7-7---7-5---5-0-|
E|-----------5---------------5-----|

Chorus:
G|---------------------------------|
D|-7-7---7-5---5-0-7-7---7-5---5-0-|
A|-----------5---------------5-----|
E|---------------------------------|


| /  slide up
| \  slide down
| h  hammer-on
| p  pull-off
| ~  vibrato
| +  harmonic
| x  Mute note
===============================================================================
Добавлено: 12.05.2016
Другие материалы по этой песне:
  • Аккорды и текст

Страница создана 29.10.2013
http://primanota.ru/metric/youth-without-youth-chords.htm
Привет, Гость.
Предлагаем пройти революционный курс по гитаре.
Подарок от PrimaNota.Ru, забирай!