PrimaNota.ru - самый крупный в мире бесплатный архив песенных текстов, аккордов, табулатур и нот


Metric - Front Row - текст песни, таба, видео

Регистрация Запомнить меня
Войти через:  Facebook Google Twitter Vk Yandex Mail.ru

Metric - Front Row - текст песни, таба, видео

Печатать
Просмотров: 86
Авторы музыки: Metric

Artist: Metric
Song: Front Row
Tabbed by: Manthony
03.04.14


TUNING: (E A D G B E)



E||-------------------------------------------------------------------||
B||-------------------------------------------------------------------||
G||-------------------------------------------------------------------|| 
D||-2-2-2-2-2-2-2-2-2-2-2-2-2-2-2-2--4-4-4-4-4-4-4-4-4-4-4-4-4-4-4-4--||
A||-2-2-2-2-2-2-2-2-2-2-2-2-2-2-2-2--2-2-2-2-2-2-2-2-2-2-2-2-2-2-2-2--||
E||-0-0-0-0-0-0-0-0-0-0-0-0-0-0-0-0--2-2-2-2-2-2-2-2-2-2-2-2-2-2-2-2--||
    . . . . . . . . . . . . . . . .  . . . . . . . . . . . . . . . .     
                    
                             ooooh ooooh ooooh

I'm in the front row with a bottle
Don't know what i can't decide
I'm in the front row i'm a model
Don't know what i can't describe



E||-------------------------------------------------------------------||
B||-------------------------------------------------------------------||
G||-------------------------------------------------------------------|| 
D||-5-5-5-5-5-5-5-5-5-5-5-5-5-5-5-5--7-7-7-7-7-7-7-7-7-7-7-7-7-7-7-7--||
A||-5-5-5-5-5-5-5-5-5-5-5-5-5-5-5-5--5-5-5-5-5-5-5-5-5-5-5-5-5-5-5-5--||
E||-3-3-3-3-3-3-3-3-3-3-3-3-3-3-3-3--5-5-5-5-5-5-5-5-5-5-5-5-5-5-5-5--||
    . . . . . . . . . . . . . . . .  . . . . . . . . . . . . . . . .


E||-------------------------------------------------------------------||
B||-------------------------------------------------------------------||
G||-------------------------------------------------------------------|| 
D||-5-5-5-5-5-5-5-5-5-5-5-5-5-5-5-5--7-7-7-7-7-7-7-7-7-7-7-7-8-8-8-8--||
A||-5-5-5-5-5-5-5-5-5-5-5-5-5-5-5-5--5-5-5-5-5-5-5-5-5-5-5-5-6-6-6-6--||
E||-3-3-3-3-3-3-3-3-3-3-3-3-3-3-3-3--5-5-5-5-5-5-5-5-5-5-5-5-6-6-6-6--||
    . . . . . . . . . . . . . . . .  . . . . . . . . . . . . . . . .

Burned out stars they shine so bright
							All of us
		Burned out stars they shine so bright




.......................................................................................


E||-------------------------------------------------------------------||
B||-------------------------------------------------------------------||
G||-------------------------------------------------------------------|| 
D||-2-2-2-2-2-2-2-2-2-2-2-2-2-2-2-2--4-4-4-4-4-4-4-4-4-4-4-4-4-4-4-4--||
A||-2-2-2-2-2-2-2-2-2-2-2-2-2-2-2-2--2-2-2-2-2-2-2-2-2-2-2-2-2-2-2-2--||
E||-0-0-0-0-0-0-0-0-0-0-0-0-0-0-0-0--2-2-2-2-2-2-2-2-2-2-2-2-2-2-2-2--||
    . . . . . . . . . . . . . . . .  . . . . . . . . . . . . . . . .   


E||-------------------------------------------------------------------||
B||-------------------------------------------------------------------||
G||-------------------------------------------------------------------|| 
D||-2-2-2-2-2-2-2-2-2-2-2-2-2-2-2-2--7-7-7-7-7-7-7-7-7-7-7-7-7-7-7-7--||
A||-2-2-2-2-2-2-2-2-2-2-2-2-2-2-2-2--5-5-5-5-5-5-5-5-5-5-5-5-5-5-5-5--||
E||-0-0-0-0-0-0-0-0-0-0-0-0-0-0-0-0--5-5-5-5-5-5-5-5-5-5-5-5-5-5-5-5--||
    . . . . . . . . . . . . . . . .  . . . . . . . . . . . . . . . .      

He's not perfect he's my hero
Smashing the piano
Spitting in the front row
Chronic confrontation
Psychic conversation
Radical compassion
Louder than the action
All of us


*lead
E||--------------------------------------|----------------------------------------||
B||--------------------------------------|----------------------------------------||
G||-16-16--16-17-16-14-16-16-16-17-16-14-|-14-14-14--17-16-14-14-14--14-17-16-14--|| 
D||--------------------------------------|----------------------------------------||
A||--------------------------------------|----------------------------------------||
E||--------------------------------------|----------------------------------------||

..........................................................................................





E||-------------------------------------------------------------------||
B||-------------------------------------------------------------------||
G||-------------------------------------------------------------------|| 
D||-5-5-5-5-5-5-5-5-5-5-5-5-5-5-5-5--7-7-7-7-7-7-7-7-7-7-7-7-7-7-7-7--||
A||-5-5-5-5-5-5-5-5-5-5-5-5-5-5-5-5--5-5-5-5-5-5-5-5-5-5-5-5-5-5-5-5--||
E||-3-3-3-3-3-3-3-3-3-3-3-3-3-3-3-3--5-5-5-5-5-5-5-5-5-5-5-5-5-5-5-5--||
    . . . . . . . . . . . . . . . .  . . . . . . . . . . . . . . . .


E||-------------------------------------------------------------------||
B||-------------------------------------------------------------------||
G||-------------------------------------------------------------------|| 
D||-5-5-5-5-5-5-5-5-5-5-5-5-5-5-5-5--7-7-7-7-7-7-7-7-7-7-7-7-7-7-7-7--||
A||-5-5-5-5-5-5-5-5-5-5-5-5-5-5-5-5--5-5-5-5-5-5-5-5-5-5-5-5-5-5-5-5--||
E||-3-3-3-3-3-3-3-3-3-3-3-3-3-3-3-3--5-5-5-5-5-5-5-5-5-5-5-5-5-5-5-5--||
    . . . . . . . . . . . . . . . .  . . . . . . . . . . . . . . . .

Burned out stars they shine so bright
							All of us
		Burned out stars they shine so bright


*lead
E||-----------------------|-----------------------|--------------------------|
B||-----------------------|-----------------------|--------------------------|
G||-----------12----12-11-|-----------12----12-11-|-11-----------11----12/14-| 
D||----9-12-9----12-------|----9-12-9----12-------|----12-10-12-----12-------|
A||-10--------------------|-10--------------------|--------------------------|
E||-----------------------|-----------------------|--------------------------|

---------------------------||
---------------------------||
-11-----------11----12/14--||
----12-10-12-----12--------||
---------------------------||
---------------------------||

E||-----------------------|-----------------------|--------------------------|
B||-----------------------|-----------------------|--------------------------|
G||-----------12----12-11-|-----------12----12-11-|-11-----------11----12/14-| 
D||----9-12-9----12-------|----9-12-9----12-------|----12-10-12-----12-------|
A||-10--------------------|-10--------------------|--------------------------|
E||-----------------------|-----------------------|--------------------------|

---------------------------||
---------------------------||
-11-----------11----14/16--||
----12-10-12-----12--------||
---------------------------||
---------------------------||



E||-------------------------------------------------------------------||
B||-------------------------------------------------------------------||
G||-------------------------------------------------------------------|| 
D||-2-2-2-2-2-2-2-2-2-2-2-2-2-2-2-2--4-4-4-4-4-4-4-4-4-4-4-4-4-4-4-4--||
A||-2-2-2-2-2-2-2-2-2-2-2-2-2-2-2-2--2-2-2-2-2-2-2-2-2-2-2-2-2-2-2-2--||
E||-0-0-0-0-0-0-0-0-0-0-0-0-0-0-0-0--2-2-2-2-2-2-2-2-2-2-2-2-2-2-2-2--||
    . . . . . . . . . . . . . . . .  . . . . . . . . . . . . . . . .    

I'm in the front row with a bottle
Don't know what I can't decide
I'm the front row i'm a model
Don't know what I can't describe

E||-------------------------------------------------------------------||
B||-------------------------------------------------------------------||
G||-------------------------------------------------------------------|| 
D||-5-5-5-5-5-5-5-5-5-5-5-5-5-5-5-5--7-7-7-7-7-7-7-7-7-7-7-7-7-7-7-7--||
A||-5-5-5-5-5-5-5-5-5-5-5-5-5-5-5-5--5-5-5-5-5-5-5-5-5-5-5-5-5-5-5-5--||
E||-3-3-3-3-3-3-3-3-3-3-3-3-3-3-3-3--5-5-5-5-5-5-5-5-5-5-5-5-5-5-5-5--||
    . . . . . . . . . . . . . . . .  . . . . . . . . . . . . . . . .


E||-------------------------------------------------------------------||
B||-------------------------------------------------------------------||
G||-------------------------------------------------------------------|| 
D||-5-5-5-5-5-5-5-5-5-5-5-5-5-5-5-5--7-7-7-7-7-7-7-7-7-7-7-7-8-8-8-8--||
A||-5-5-5-5-5-5-5-5-5-5-5-5-5-5-5-5--5-5-5-5-5-5-5-5-5-5-5-5-6-6-6-6--||
E||-3-3-3-3-3-3-3-3-3-3-3-3-3-3-3-3--5-5-5-5-5-5-5-5-5-5-5-5-6-6-6-6--||
    . . . . . . . . . . . . . . . .  . . . . . . . . . . . . . . . .

Burned out stars they shine so bright
							All of us
		Burned out stars they shine so bright




.......................................................................................


E||-------------------------------------------------------------------||
B||-------------------------------------------------------------------||
G||-------------------------------------------------------------------|| 
D||-2-2-2-2-2-2-2-2-2-2-2-2-2-2-2-2--4-4-4-4-4-4-4-4-4-4-4-4-4-4-4-4--||
A||-2-2-2-2-2-2-2-2-2-2-2-2-2-2-2-2--2-2-2-2-2-2-2-2-2-2-2-2-2-2-2-2--||
E||-0-0-0-0-0-0-0-0-0-0-0-0-0-0-0-0--2-2-2-2-2-2-2-2-2-2-2-2-2-2-2-2--||
    . . . . . . . . . . . . . . . .  . . . . . . . . . . . . . . . .   


E||-------------------------------------------------------------------||
B||-------------------------------------------------------------------||
G||-------------------------------------------------------------------|| 
D||-2-2-2-2-2-2-2-2-2-2-2-2-2-2-2-2--7-7-7-7-7-7-7-7-7-7-7-7-7-7-7-7--||
A||-2-2-2-2-2-2-2-2-2-2-2-2-2-2-2-2--5-5-5-5-5-5-5-5-5-5-5-5-5-5-5-5--||
E||-0-0-0-0-0-0-0-0-0-0-0-0-0-0-0-0--5-5-5-5-5-5-5-5-5-5-5-5-5-5-5-5--||
    . . . . . . . . . . . . . . . .  . . . . . . . . . . . . . . . .      

He's not perfect he's my hero
Smashing the piano
Spitting in the front row
Chronic confrontation
Psychic conversation
Radical compassion
Louder than the action
All of us


*lead
E||--------------------------------------|----------------------------------------||
B||--------------------------------------|----------------------------------------||
G||-16-16--16-17-16-14-16-16-16-17-16-14-|-14-14-14--17-16-14-14-14--14-17-16-14--|| 
D||--------------------------------------|----------------------------------------||
A||--------------------------------------|----------------------------------------||
E||--------------------------------------|----------------------------------------||

..........................................................................................
Добавлено: 12.08.2013
Другие материалы по этой песне:
  • Аккорды и текст

Страница создана 12.08.2013
http://primanota.ru/metric/front-row-chords.htm
Привет, Гость.
Предлагаем пройти революционный курс по гитаре.
Подарок от PrimaNota.Ru, забирай!