PrimaNota.ru - самый крупный в мире бесплатный архив песенных текстов, аккордов, табулатур и нот


Message To Bears - Wake Me - таба, видео

Регистрация Запомнить меня
Войти через:  Facebook Google Twitter Vk Yandex Mail.ru

Message To Bears - Wake Me - таба, видео

Печатать
Просмотров: 973
Message To Bears - Wake Me


Tabbed by: Paolo Bangrazi
Email: paolo.bangrazi@gmail.com
Cover using tab: https://www.youtube.com/watch?v=INwSHXMeH_Y
(Note: I am not the author of the tab but uploaded it on Paolo's behalf)


Standard tuning
Capo on 3rd fret (tabbed in relation)

Intro
e|-----------------------|---------------7---|
B|---5---3p0---0---------|---5---7---8-------|
G|-----------------2p0---|-------------------| \_ x2
D|-------------2---2-----|---------------5---| /
A|---3---5---------0-----|---3---5---7-------|
E|-------------0---------|-------------------|


For the rest of the song the following two patterns repeat in order
Pattern 1, 2, 1, 2 etc


Verse Pattern 1
e|--------------------|--------------------|--------------------|--------------------|--------------------|
B|--5-----------5-----|--3-----------5-----|--0-----------0-----|--------------------|--------------------|
G|-----0-----0--------|-----0-----0--------|-----0-----0--------|--2-----------2-----|-----0h2-----0------|
D|-----------------0--|-----------------0--|-----------------2--|-----2-----2-----2--|----------------0---|
A|--3-----3-----------|--5-----3-----------|--------------------|--0-----0-----------|--0-------0---------|
E|--------------------|--------------------|--0-----0-----------|--------------------|--------------------|
        \ x3 /               \ x1 /                \ x2 /               \ x1 /               \ x1 /


Verse Pattern 2
e|--------------------|--------------------|--------------------|--7-----------7-----|
B|--5-----------5-----|--3-----------5-----|--8-----------8-----|-----0-----------0--|
G|-----0-----0--------|-----0-----0--------|-----0-----0--------|-----------0--------|
D|-----------------0--|-----------------0--|-----------------0--|--5-----5-----------|
A|--3-----3-----------|--5-----3-----------|--7-----7-----------|--------------------|
E|--------------------|--------------------|--------------------|--------------------|
        \ x3 /               \ x1 /                \ x2 /               \ x2 /   


Towards the end when the singing begins, guitar repeats intro section through to the end of the song


Enjoy!
Добавлено: 25.09.2014
Другие материалы по этой песне:
  • Аккорды и текст

Страница создана 25.09.2014
http://primanota.ru/message-to-bears/wake-me-chords.htm
Привет, Гость.
Предлагаем пройти революционный курс по гитаре.
Подарок от PrimaNota.Ru, забирай!