PrimaNota.ru - самый крупный в мире бесплатный архив песенных текстов, аккордов, табулатур и нот


Message To Bears - Mountains - таба, видео

Регистрация Запомнить меня
Войти через:  Facebook Google Twitter Vk Yandex Mail.ru

Message To Bears - Mountains - таба, видео

Печатать
Просмотров: 1097
Авторы музыки: J.R Alexander
Авторы текста: J.R Alexander
-------------------------------------------------------------------------------
                             MOUNTAINS - Message to Bears
-------------------------------------------------------------------------------
Tabbed by:
E-mail: brunoluizdepaula@yahoo.com.br

tuning is D-A-D-Fsharp-B-D and capo on 4th!(https://twitter.com/MessageToBears/status/6118545066960486400)


D |---------------------------------------------------------------------------|
B |-3---3---3---3---3---3---3---2---2---2---2---2---2---2---2-----------------|
F#|---0---0---0---0---0---0---0---0---0---0---0---0---0---0---0---------------|
D |---------------------------------------------------------------------------|
A |---------------------------------------------------------------------------|
D |---------------------------------------------------------------------------|

e|---------------------------------------------------------------------------|
B|-3---3---3---3---3---3---3/7----7----7---7---7/10--10---10---10---10-------|
G|---0---0---0---0---0---0-----0-----0---0---0-----0---0----0----0-----0-----|
D|---------------------------------------------------------------------------|
A|---------------------------------------------------------------------------|
E|---------------------------------------------------------------------------|

Just repeat along the song, I don't know the rest...

You can help complete this tab, just send me your tabs.


************************************

| /   slide up
| \   slide down
| h   hammer-on
| p   pull-off
| ~   vibrato
| +   harmonic
| x   Mute note
| b   Bend
| pb  Pre-bend
| br  Bend release
| pbr Pre-bend release
| brb Bend release bend

************************************
Добавлено: 08.12.2015
Другие материалы по этой песне:

Страница создана 08.12.2015
http://primanota.ru/message-to-bears/mountains-chords.htm
Привет, Гость.
Предлагаем пройти революционный курс по гитаре.
Подарок от PrimaNota.Ru, забирай!