PrimaNota.ru - самый крупный в мире бесплатный архив песенных текстов, аккордов, табулатур и нот


Meshuggah - Bleed - текст песни, таба, видео

Регистрация Запомнить меня
Войти через:  Facebook Google Twitter Vk Yandex Mail.ru

Meshuggah - Bleed - текст песни, таба, видео

Печатать
Просмотров: 357
This is played with 8-string guitars on ½step down tuning.
I didn't find this tab anywhere. I watched Meshuggah's own lesson for this riff and it 
like this.
Everybody don't have 8-string guitar, but this is right tab for 8-string guitar.

Rhythm is ooo-o-ooo-o-ooo-o-ooo-o-...... etc
5/ means you have to bend fifth fret.

Eb-----------------|
Hb-----------------|
Gb-----------------|
Db-----------------|
Ab-----------------|
Eb-0------0-----0--|
Bb----5/-----5/----|
F------------------|

I don't have time to tab whole rhythm and bending. hope you understand that way.

Then the lower part of the riff goes like this for real

Eb-------------------------------------|
Hb-------------------------------------|
Gb-------------------------------------|
Db-------------------------------------|
Ab-------------------------------------|
Eb---------------------1--10--4--------|
Hb-------------------------------3--0--|....
F--1-------------2--5------------------|

so, strum that certain fret for the certain rhythm.
Hope you get it :)
Добавлено: 27.02.2012
Другие материалы по этой песне:

Страница создана 27.02.2012
http://primanota.ru/meshuggah/bleed-chords.htm
Привет, Гость.
Предлагаем пройти революционный курс по гитаре.
Подарок от PrimaNota.Ru, забирай!