PrimaNota.ru - самый крупный в мире бесплатный архив песенных текстов, аккордов, табулатур и нот


Meshuggah - Future Breed Machine - текст песни, таба, бас-таба, видео

Регистрация Запомнить меня
Войти через:  Facebook Google Twitter Vk Yandex Mail.ru

Meshuggah - Future Breed Machine - текст песни, таба, бас-таба, видео

Печатать
Просмотров: 212
Уроки эстрадного вокала в Санкт-Петербурге
Авторы музыки: Fredrik Thordendal
Авторы текста: Tomas Haake
As recorded by Meshuggah
(From the 1995 Album DESTROY ERASE IMPROVE)

Transcribed by Anton Lidström (anton.lidstrom@gmail.com) & Alex Wilson
        

Words by Tomas Haake Music by Fredrik Thordendal

Gtr I (Bb Eb Ab Db Gb Bb Eb) - 'Elec. Gtr. w/ dist.'
Gtr II (Bb Eb Ab Db Gb Bb Eb) - 'Elec. Gtr. w/ dist.'
Gtr III (Bb Eb Ab Db Gb Bb Eb) - 'Elec. Gtr. w/ dist.'
Gtr IV (Bb Eb Ab Db Gb Bb Eb) - 'Elec. Gtr w/chorus'

 Intro
  Fast Avant-Metal Q=175
  N.C.
 4/4
  Gtr I
  W            q   q   q   q     q   q   q   q
|----------||-13--13--13--13--|-13--13--13--13--|
|----------||-17--17--17--17--|-17--17--17--17--|
|----------||-----------------|-----------------|
|----------||-----------------|-----------------|
|----------||-----------------|-----------------|
|----------||-----------------|-----------------|
|----------||-----------------|-----------------|
|
| Gtrs II, III
| W            W                 W
|----------||-----------------|-----------------|
|----------||-----------------|-----------------|
|----------||-----------------|-----------------|
|----------||-----------------|-----------------|
|----------||-----------------|-----------------|
|----------||-----------------|-----------------|
|----------||-----------------|-----------------|


    C5
     q      q      q      q        8x
||--14-----14-----14-----14--------||
||--18-----18-----18-----18--------||
||o-------------------------------o||
||---------------------------------||
||o-------------------------------o||
||---------------------------------||
||---------------------------------||
|
|    PM-------------------------|
|    S S e  S S e  S S e  S S S S  8x
||---------------------------------||
||---------------------------------||
||o-------------------------------o||
||---5-5-5----5-5----5-5----5-5-5--||
||o--3-3-3----3-3----3-3----3-3-3-o||
||---3-3-3----3-3----3-3----3-3-3--||
||---1-1-1----1-1----1-1----1-1-1--||


 Pre Verse
  EbD5C#5   EbD5C#EbD5    C#5
  Gtr II
  S E S +S  S E E S S +S  E S
|-----------------------------|
|-----------------------------|
|-----------------------------|
|-----------------------------|
|-6s5-4-(4)-6s5-4-6s5-(5)-4-4-|
|-6s5-4-(4)-6s5-4-6s5-(5)-4-4-|
|-4s3-2-(2)-4s3-2-4s3-(3)-2-2-|
|
| Gtr III
| S e S  Q      H
|-----------------------------|
|-----------------------------|
|-----------------------------|
|-----------------------------|
|-6s5-------------------------|
|-6s5-------------------------|
|-4s3-------------------------|


      EbD5C#EbD5    C#EbD5C#5   EbD5    C#EbD5C#EbD5C#5
  +S  S E E S S +S  E S E E   E S S +S  E S E E S E S
|---------------------------|--------------------------|
|---------------------------|--------------------------|
|---------------------------|--------------------------|
|---------------------------|--------------------------|
|-(4)-6s5-4-6s5-(5)-4-6s5-4-|-4-6s5-(5)-4-6s5-4-6s5-4--|
|-(4)-6s5-4-6s5-(5)-4-6s5-4-|-4-6s5-(5)-4-6s5-4-6s5-4--|
|-(2)-4s3-2-4s3-(3)-2-4s3-2-|-2-4s3-(3)-2-4s3-2-4s3-2--|
|
|  H             Q.       E   E S S +S  E S E E S E S
|---------------------------|--------------------------|
|---------------------------|--------------------------|
|---------------------------|--------------------------|
|---------------------------|--------------------------|
|-------------------------4-|-4-6s5-(5)-4-6s5-4-6s5-4--|
|-------------------------4-|-4-6s5-(5)-4-6s5-4-6s5-4--|
|-------------------------2-|-2-4s3-(3)-2-4s3-2-4s3-2--|


        EbD5C#EbD5C#5   EbD5
  Gtrs II, III
  +S  E S E E S E S +S  S E
|---------------------------|
|---------------------------|
|---------------------------|
|---------------------------|
|-(4)-4-6s5-4-6s5-4-(4)-6s5-|
|-(4)-4-6s5-4-6s5-4-(4)-6s5-|
|-(2)-2-4s3-2-4s3-2-(2)-4s3-|


  EbD5C#5   EbD5C#EbD5    C#5           EbD5    C#EbD5C#5
                                    PM
  S E S +S  S E E S S +S  E S   +E  E E S S +S  E S E E
|-----------------------------|-------------------------|
|-----------------------------|-------------------------|
|-----------------------------|-------------------------|
|-----------------------------|-------------------------|
|-6s5-4-(4)-6s5-4-6s5-(5)-4-4-|-(4)---4-6s5-(5)-4-6s5-4-|
|-6s5-4-(4)-6s5-4-6s5-(5)-4-4-|-(4)-4-4-6s5-(5)-4-6s5-4-|
|-4s3-2-(2)-4s3-2-4s3-(3)-2-2-|-(2)-2-2-4s3-(3)-2-4s3-2-|


                                                       Verses I & II
                                                        $
    EbD5    C#EbD5C#EbD5C#5            EbD5C#5   EbD5   EbD5C#5  EbD5      C#5
                                   PM                   PM-----------------|
  E S S +S  E S E E S E S   +S  E. E E S E S +S  S E    S e S Q  S e S S e S
|-------------------------|--------------------------||-----------------------|
|-------------------------|--------------------------||-----------------------|
|-------------------------|--------------------------||-----------------------|
|-------------------------|--------------------------||-----------------------|
|-4-6s5-(5)-4-6s5-4-6s5-4-|-(4)-4----4-6s5-4-(4)-6s5-||-6s5-4----6s5-5---5-4--|
|-4-6s5-(5)-4-6s5-4-6s5-4-|-(4)-4--4-4-6s5-4-(4)-6s5-||-6s5-4----6s5-5---5-4--|
|-2-4s3-(3)-2-4s3-2-4s3-2-|-(2)-2--2-2-4s3-2-(2)-4s3-||-4s3-2----4s3-3---3-2--|


     EbD5C#5  EbD5        C#5  EbD5C#5    EbD5      C#5  D5C#G5
  PM-------------------------------------------------------|
  Q  S e S Q  S e S   S e S Q  S e S Q    S e S S e S Q  S S E
|-------------------|-------------------|----------------------|
|-------------------|-------------------|----------------------|
|-------------------|-------------------|----------------------|
|-------------------|-------------------|--------------------5-|
|----6s5-4----6s5-5-|---5-4----6s5-4----|-6s5-5---5-4----5s4-5-|
|----6s5-4----6s5-5-|---5-4----6s5-4----|-6s5-5---5-4----5s4-3-|
|----4s3-2----4s3-3-|---3-2----4s3-2----|-4s3-3---3-2----3s2-3-|


  EbD5C#5  EbD5      C#5    EbD5C#5  EbD5        C#5  EbD5C#5
  PM--------------------------------------------------------|
  S e S Q  S e S S e S   Q  S e S Q  S e S   S e S Q  S e S Q
|----------------------|-------------------|-------------------|
|----------------------|-------------------|-------------------|
|----------------------|-------------------|-------------------|
|----------------------|-------------------|-------------------|
|-6s5-4----6s5-5---5-4-|----6s5-4----6s5-5-|---5-4----6s5-4----|
|-6s5-4----6s5-5---5-4-|----6s5-4----6s5-5-|---5-4----6s5-4----|
|-4s3-2----4s3-3---3-2-|----4s3-2----4s3-3-|---3-2----4s3-2----|


                          Chorus
  EbD5      C#5  D5C#G5    EbD5C#5   B5EbD5      C#5     B5EbD5C#5   B5EbD5
  PM---------------|                 PM    PM  PM        PM          PM    PM
  S e S S e S Q  S S E     S E S +E  e S E S S e S   +E  e S E S +E  e S E S
|----------------------||--------------------------|--------------------------|
|----------------------||--------------------------|--------------------------|
|----------------------||o-------------------------|--------------------------|
|--------------------5-||------6-(6)-------------6-|-(6)-------6-(6)----------|
|-6s5-5---5-4----5s4-5-||o-6s5-4-(4)---6s5-5---5-4-|-(4)---6s5-4-(4)---6s5-5--|
|-6s5-5---5-4----5s4-3-||--6s5-4-(4)-2-6s5-5---5-4-|-(4)-2-6s5-4-(4)-2-6s5-5--|
|-4s3-3---3-2----3s2-3-||--4s3-2-(2)-0-4s3-3---3-2-|-(2)-0-4s3-2-(2)-0-4s3-3--|


                                           To Coda
      C#5   B5EbD5C#5   B5  EbD5      C#5   B5D5C#G5
    PM      PM          PM      PM  PM      PM
  S e S +E  e S E S +E  e   S E S S e S +E  e S S E
|-------------------------|--------------------------||
|-------------------------|--------------------------||
|-------------------------|-------------------------o||
|-----6-(6)-------6-(6)---|-----------6-(6)-------5--||
|---5-4-(4)---6s5-4-(4)---|-6s5-5---5-4-(4)---5s4-5-o||
|---5-4-(4)-2-6s5-4-(4)-2-|-6s5-5---5-4-(4)-2-5s4-3--||
|---3-2-(2)-0-4s3-2-(2)-0-|-4s3-3---3-2-(2)-0-3s2-3--||


     Bridge
      Eb5D5    C5      B5    C5
                     PM      PM
      E. S +E  E +S  e S +E  e
|-||---------------------------|
|-||---------------------------|
|-||o--------------------------|
|-||--8--7-(7)-5-(5)-----------|
|-||o-6--5-(5)-3-(3)-3-2-(2)-3-|
|-||--6--5-(5)-3-(3)-3-2-(2)-3-|
|-||--4--3-(3)-1-(1)-1-0-(0)-1-|


  1.
  B5 C5  B5 C5B5    C5       Eb5   D5    C5B5    C5  B5 C5  B5 C5B5    C5
     PM     PM      PM                   PM      PM     PM     PM      PM
  E. S S E. e E +S  e S   E. S +E  E +S  e S +E  e   E. S S E. e E +S  e S
|-----------------------|--------------------------|------------------------||
|-----------------------|--------------------------|------------------------||
|-----------------------|--------------------------|-----------------------o||
|-----------------------|-5--8-(8)-7-(7)-----------|------------------------||
|-2--3---2--3-2-(2)-3-x-|-3--6-(6)-5-(5)-3-2-(2)-3-|-2--3---2--3-2-(2)-3-x-o||
|-2--3---2--3-2-(2)-3-x-|-3--6-(6)-5-(5)-3-2-(2)-3-|-2--3---2--3-2-(2)-3-x--||
|-0--1---0--1-0-(0)-1-x-|-1--4-(4)-3-(3)-1-0-(0)-1-|-0--1---0--1-0-(0)-1-x--||


  2.
                                                                D.S. al Coda
  B5 C5  B5 C5B5    C5
     PM     PM      PM    PM----------------------------------------------|
  E. S S E. e E +S  e S   S E S +S  S E E S S +S  E S   E E S E S +S  S E e E
|-----------------------|-----------------------------|-----------------------||
|-----------------------|-----------------------------|-----------------------||
|-----------------------|-----------------------------|-----------------------||
|-----------------------|-----------------------------|-----------------------||
|-2--3---2--3-2-(2)-3-3-|-3-3-3-(3)-3-3-3-3-3-(3)-3-3-|-3-3-3-3-3-(3)-3-3-3---||
|-2--3---2--3-2-(2)-3-3-|-3-3-3-(3)-3-3-3-3-3-(3)-3-3-|-3-3-3-3-3-(3)-3-3-3---||
|-0--1---0--1-0-(0)-1-1-|-1-1-1-(1)-1-1-1-1-1-(1)-1-1-|-1-1-1-1-1-(1)-1-1-1---||


   Odd-Time Interlude
    &
    Fm7      C#C5  Fm7      C#C5C#C5  Fm7      C#C5  Fmaj7    EbD5C5D5Eb5
   5/8            7/8                5/8            4/4
             PM|            PM----|            PM|            PM------|
    E. S +E  e e   E. S +E  e e e e   E. S +E  e e   E. S +E  e e e e E  4x
||---------------|------------------|--------------|---------------------||
||---------------|------------------|--------------|---------------------||
||o--------------|------------------|--------------|--------------------o||
||--6--6-(6)-----|-6--6-(6)---------|-6--6-(6)-----|-7--7-(7)------------||
||o-6--6-(6)-----|-6--6-(6)---------|-6--6-(6)-----|-7--7-(7)-----------o||
||--4--4-(4)-4-3-|-4--4-(4)-4-3-4-3-|-4--4-(4)-4-3-|-5--5-(5)-6-5-3-5-6--||
||--6--6-(6)-2-1-|-6--6-(6)-2-1-2-1-|-6--6-(6)-2-1-|-6--6-(6)-4-3-1-3-4--||


   Verse III/Blastbeat Riff
    C5
    PM------------------------------------------------------------|
    S S e S S e S S e S S S S  8x      S S e  S S e  S S e  S S S S  8x
||-----------------------------||-||---------------------------------||
||-----------------------------||-||---------------------------------||
||o---------------------------o||-||o-------------------------------o||
||--5-5-5-5-5-5-5-5-5-5-5-5-5--||-||---5-5-5--5-5-5--5-5-5--5-5-5-5--||
||o-3-3-3-3-3-3-3-3-3-3-3-3-3-o||-||o--3-3-3--3-3-3--3-3-3--3-3-3-3-o||
||--3-3-3-3-3-3-3-3-3-3-3-3-3--||-||---3-3-3--3-3-3--3-3-3--3-3-3-3--||
||--1-1-1-1-1-1-1-1-1-1-1-1-1--||-||---1-1-1--1-1-1--1-1-1--1-1-1-1--||
|
|   Gtr I
|   W                          8x      q      q      q      q        8x
||-----------------------------||-||--14-----14-----14-----14--------||
||-----------------------------||-||--18-----18-----18-----18--------||
||o---------------------------o||-||o-------------------------------o||
||-----------------------------||-||---------------------------------||
||o---------------------------o||-||o-------------------------------o||
||-----------------------------||-||---------------------------------||
||-----------------------------||-||---------------------------------||


 Breakdown (Clean)
  C#5     Bm6add9   Bmadd9
 4/4               5/8
  Gtr IV
  E E E E E E E E    E  E E E E
|-----------------|-------------|
|-----------------|-------------|
|-----------------|-------------|
|-------6-----0---|---------0---|
|-----5---------4-|-------4-----|
|---4-------4-----|-----2-------|
|-2-------0-------|--0--------3-|
|
| Gtrs II, III
| >
| W                 +Q.     Q
|-----------------|-------------|
|-----------------|-------------|
|-----------------|-------------|
|-6---------------|-(6)---------|
|-4---------------|-(4)---------|
|-4---------------|-(4)---------|
|-2---------------|-(2)---------|


  (C#5)   F6+5      D6/F#       (C#5)   Bm6add9
 4/4               5/8         4/4
  E E E E E E E E   E E E E E   E E E E E E E E
|-----------------|-----------|------------------|
|-----------------|-------0---|------------------|
|---------------2-|-----2-----|------------------|
|-------6-----0---|---0-------|-------6-----0----|
|-----5-----4-----|-----------|-----5---------4--|
|---4-----1-------|-2---------|---4-------4------|
|-2---------------|---------3-|-2-------0--------|
|
| W                 W           W
|-----------------|-----------|------------------|
|-----------------|-----------|------------------|
|-----------------|-----------|------------------|
|-----------------|-----------|------------------|
|-----------------|-----------|------------------|
|-----------------|-----------|------------------|
|-----------------|-----------|------------------|


  Bmadd9      (C#5)   F6+5      D6/F#    D5
 5/8         4/4               5/8
  E E E E E   E E E E E E E E   E  E E E E
|-----------|-----------------|------------|
|-----------|-----------------|--------0---|
|-----------|---------------2-|------2-----|
|-------0---|-------6-----0---|----0-------|
|-----4-----|-----5-----4-----|------------|
|---2-------|---4-----1-------|-2----------|
|-0-------3-|-2---------------|----------3-|
|
| W           W                 Q.     E E
|-----------|-----------------|------------|
|-----------|-----------------|------------|
|-----------|-----------------|------------|
|-----------|-----------------|----------7-|
|-----------|-----------------|----------5-|
|-----------|-----------------|----------5-|
|-----------|-----------------|----------3-|


   Breakdown (Heavy)
    C#5     B5                    D5
   4/4               5/8
    E E E E E E E E    E  E E  E  E
||------------------|----------------|
||------------------|----------------|
||o-----------------|----------------|
||--------6-----0---|----------0-----|
||o-----5---------4-|-------4--------|
||----4-------4-----|-----2----------|
||--2-------0-------|--0----------3--|
|
|   H       H         +Q.     +E  E
||------------------|----------------|
||------------------|----------------|
||o-----------------|----------------|
||--6-------4-------|-(4)-----(4)-7--|
||o-4-------2-------|-(2)-----(2)-5--|
||--4-------2-------|-(2)-----(2)-5--|
||--2-------0-------|-(0)-----(0)-3--|


                    1.               2.
  C#5     F5        F#5        D5    F#5
 4/4               5/8
  E E E E E E E E   E  E E  E  E     E  E E  E  E
|-----------------|---------------||--------------||
|-----------------|---------0-----||---------0----||
|---------------2-|------2-------o||------2-------||
|-------6-----0---|----0----------||----0---------||
|-----5-----4-----|--------------o||--------------||
|---4-----1-------|-2-------------||-2------------||
|-2---------------|------------3--||------------3-||
|
| H       H         Q.     +E  E     Q.     +E  E
|-----------------|---------------||--------------||
|-----------------|---------------||--------------||
|---------5-------|-6------(6)---o||-6------(6)---||
|-6-------3-------|-4------(4)-7--||-4------(4)---||
|-4-------3-------|-4------(4)-5-o||-4------(4)---||
|-4-------1-------|-2------(2)-5--||-2------(2)---||
|-2---------------|------------3--||--------------||
|
| Gtr I
| W                 W                Q.      E  E
|-----------------|---------------||--------------||
|-----------------|---------------||--------------||
|-----------------|--------------o||--------------||
|-----------------|---------------||--------------||
|-----------------|--------------o||------------9-||
|-----------------|---------------||--------------||
|-----------------|---------------||--------------||


 Guitar Solo I
    (C#5)    Bm6add9   Bmadd9
 4/4                  5/8
     E E E E E E E E     E  E E   E  E
|--------------------|-------------------|
|--------------------|-------------------|
|--------------------|-------------------|
|----------6-----0---|------------0------|
|--------5---------4-|--------4----------|
|------4-------4-----|------2------------|
|----2-------0-------|---0-----------3---|
|
|    W                   W
|--------------------|-------------------|
|--------------------|-------------------|
|--------------------|-------------------|
|--------------------|-------------------|
|--------------------|-------------------|
|--------------------|-------------------|
|--------------------|-------------------|
|
|    ~~~~~~~~~~~~~~~~~~~~~~~~~~~~~~~~
| a  W                  +Q.      +Q
|--------------------|-------------------|
|--------------------|-------------------|
|--------------------|-------------------|
|--------------------|-------------------|
|-9s11---------------|-(11)-----(11)-----|
|--------------------|-------------------|
|--------------------|-------------------|


  (C#5)        F6+5      D6/F#       (C#5)      Bm6add9
 4/4                    5/8         4/4
    E   E E  E E E E E   E E E E E   E  E E   E   E   E E   E
|----------------------|-----------|--------------------------|
|----------------------|-------0---|--------------------------|
|--------------------2-|-----2-----|--------------------------|
|------------6-----0---|---0-------|----------6---------0-----|
|---------5------4-----|-----------|------5-----------------4-|
|-------4------1-------|-2---------|----4-------------4-------|
|---2------------------|---------3-|-2------------0-----------|
|
| Gtr I
|                                                           ~~~
|  +E   E H.             W           Q.       E  +E   E E a E
|----------------------|-----------|--------------------------|
|----------------------|-----------|--------------------------|
|----------------------|-----------|--------------------------|
|----------------------|-----------|--------------------------|
|-(11)\----------------|-----------|--------/12-(12)-11---7s9-|
|----------------------|-----------|--------------------------|
|----------------------|-----------|--------------------------|


  Bmadd9          (C#5)     F6+5
 5/8             4/4
   E  E E  E  E   E E E E   E E E E
|---------------|---------------------|
|---------------|---------------------|
|---------------|-----------------2---|
|----------0----|-------6-------0-----|
|-------4-------|-----5-------4-------|
|-----2---------|---4-------1---------|
|--0----------3-|-2-------------------|
|
|~~~~~~~~~~~~~              ~
| +Q.     +Q      H       a H
|---------------|---------------------|
|---------------|---------------------|
|---------------|---------------------|
|---------------|---------------------|
|-(9)-----(9)---|-8-------------------|
|---------------|---------7s9---------|
|---------------|---------------------|


  D6/F#              (C#5)    Bm6add9
 5/8                4/4
    E E  E  E  E     E  E E E E E   E E
|------------------|--------------------|
|-----------0------|--------------------|
|--------2---------|--------------------|
|-----0------------|--------6-------0---|
|------------------|------5-----------4-|
|---2--------------|----4-------4-------|
|--------------3---|-2--------0---------|
|
| a Q   +E  E +E     H.           a q
|------------------|--------------------|
|------------------|--------------------|
|------------------|--------------------|
|------------------|--------------------|
|------------------|--------------7s9---|
|-5s7---(7)s9-(9)\-|--------------------|
|------------------|--------------------|


    Bmadd9           (C#5)      F6+5          D6/F#
 5/8                4/4                      5/8
     E  E E   E  E     E  E E E E E   E   E   E E E E E
|------------------|------------------------|------------|
|------------------|------------------------|-------0----|
|------------------|----------------------2-|-----2------|
|-------------0----|----------6-------0-----|---0--------|
|---------4--------|--------5-----4---------|------------|
|-------2----------|------4-----1-----------|-2----------|
|----0-----------3-|---2--------------------|---------3--|
|
|    ~~~~~~~~~~~~~~~~~~~~~
| a  Q.      +Q       +H.            +E   E   W
|------------------|------------------------|------------|
|------------------|------------------------|------------|
|------------------|------------------------|------------|
|------------------|------------------------|------------|
|-9s11------(11)---|-(11)-----------(11)\---|------------|
|------------------|------------------------|------------|
|------------------|------------------------|------------|


  (C#5)    Bm6add9     Bmadd9             (C#5)        F6+5
 4/4                  5/8             4/4
  E  E E E E E E   E     E  E E  E E       E E  E E     E E  E E
|--------------------|---------------|---------------------------|
|--------------------|---------------|---------------------------|
|--------------------|---------------|-------------------------2-|
|--------6-----0-----|-----------0---|------------6----------0---|
|------5-----------4-|--------4------|----------5---------4------|
|----4-------4-------|------2--------|-------4----------1--------|
|-2--------0---------|---0---------3-|-----2---------------------|
|
| H.           E   E    +Q.      q      a  Q    q    a  Q    q
|--------------------|---------------|---------------------------|
|--------------------|---------------|---------------------------|
|--------------------|---------------|---------------------------|
|--------------------|---------------|--------------12s15---12---|
|----------------/11-|-(11)-----12---|-12s14---12----------------|
|--------------------|---------------|---------------------------|
|--------------------|---------------|---------------------------|


  D6/F#            (C#5)     Bm6add9
 5/8              4/4
   E  E E   E  E   E  E  E E  E E  E     E
|----------------|--------------------------|
|-----------0----|--------------------------|
|-------2--------|--------------------------|
|-----0----------|---------6-------0--------|
|----------------|-------5---------------4--|
|--2-------------|----4---------4-----------|
|--------------3-|-2----------0-------------|
|
|  ~~~~~~~~~~~~                          ~~
|  Q.      +Q      E  E  E E  q    S  S  E
|----------------|--------------------------|
|----------------|--------------------------|
|----------------|---13-13---13---13h14p13--|
|-11------(11)---|--------------------------|
|----------------|--------------------------|
|----------------|--------------------------|
|----------------|--------------------------|


  Bmadd9          (C#5)     F6+5
 5/8             4/4
    E  E E E  E    E E  E E  E  E E  E
|---------------|----------------------|
|---------------|----------------------|
|---------------|--------------------2-|
|----------0----|---------6-------0----|
|--------4------|-------5-------4------|
|------2--------|----4-------1---------|
|---0---------3-|--2-------------------|
|
|             <         <    <
|   ~~~~
|  +Q    E E  E    E E  E E  E  Q    E
|---------------|----------------------|
|---------------|----------------------|
|-(13)-------13-|-13---13---14s16---14-|
|---------------|----------------------|
|---------------|----------------------|
|---------------|----------------------|
|---------------|----------------------|


  D6/F#            (C#5)       Bm6add9   Bmadd9
 5/8              4/4                   5/8
  E  E E     E E   E  E   E  E E E E E   E E E  E  E
|----------------|---------------------|-------------|
|------------0---|---------------------|-------------|
|------2---------|---------------------|-------------|
|----0-----------|-----------6-----0---|--------0----|
|----------------|--------5----------4-|-----4-------|
|-2--------------|----4----------4-----|---2---------|
|--------------3-|-2-----------0-------|-0---------3-|
|
|            ~~                            ~~~~~~~~
| E  Q    a  Q     E  E  +E  E E Q   E   E Q   +Q
|----------------|---------------------|-------------|
|----------------|---------------------|-------------|
|---13---13s11---|---10-(10)s7---6-----|-------------|
|----------------|-------------------7-|---9---(9)---|
|----------------|---------------------|-------------|
|----------------|---------------------|-------------|
|----------------|---------------------|-------------|


  (C#5)     F6+5         D6/F#        (C#5)     Bm6add9
 4/4                    5/8          4/4
   E  E E E   E  E E E   E  E E E E   E  E E  E   E  E E     E
|----------------------|------------|--------------------------|
|----------------------|--------0---|--------------------------|
|--------------------2-|------2-----|--------------------------|
|---------6--------0---|----0-------|---------6--------0-------|
|-------5--------4-----|------------|------5-----------------4-|
|-----4-------1--------|-2----------|----4-----------4---------|
|--2-------------------|----------3-|-2-----------0------------|
|
|  ~~~
| +H          Q    Q     Q.     Q     Q.      E  +Q.      a  E
|----------------------|------------|--------------------------|
|----------------------|------------|--------------------------|
|----------------------|------------|--------------------------|
|-(9)-------/11\-------|------------|--------------------------|
|----------------------|------------|--------12-(12)-----12h14-|
|----------------------|------------|--------------------------|
|----------------------|------------|--------------------------|


  Bmadd9             (C#5)          F6+5
 5/8                4/4
    E  E  E   E  E     E  E   E   E E E E E
|------------------|------------------------|
|------------------|------------------------|
|------------------|----------------------2-|
|-------------0----|--------------6-----0---|
|---------4--------|----------5-------4-----|
|------2-----------|------4---------1-------|
|---0------------3-|---2--------------------|
|
|                                       < <
|  +Q     E  +Q       +Q     +E   E Q   E E
|------------------|------------------------|
|------------------|------------------------|
|------------------|------------------------|
|------------------|------------------------|
|-(14)---11-(11)---|-(11)---(11)\---------8-|
|------------------|--------------------9---|
|------------------|------------------------|


  D6/F#          (C#5)      Bm6add9     Bmadd9
 5/8            4/4                    5/8
  E  E  E E  E   E  E  E  E E E E   E     E  E E   E  E
|--------------|----------------------|-----------------|
|---------0----|----------------------|-----------------|
|-------2------|----------------------|-----------------|
|----0---------|----------6-----0-----|------------0----|
|--------------|-------5------------4-|--------4--------|
|-2------------|----4---------4-------|------2----------|
|------------3-|-2----------0---------|---0-----------3-|
|
| <  <  < <
| E  E  E E  E   E  E  E  E E Q     E    +Q.      +Q
|--------------|----------------------|-----------------|
|--------------|------------------/14-|-(14)-----(14)---|
|--------------|------13--------------|-----------------|
|---------9h11-|---11----11---9-------|-----------------|
|-9-11-12------|----------------------|-----------------|
|--------------|----------------------|-----------------|
|--------------|----------------------|-----------------|
|
| Gtrs II, III
| W              W                        W
|--------------|----------------------|-----------------|
|--------------|----------------------|-----------------|
|--------------|----------------------|-----------------|
|--------------|----------------------|-----------------|
|--------------|----------------------|-----------------|
|--------------|----------------------|-----------------|
|--------------|----------------------|-----------------|


  (C#5)       F6+5        D6/F#        D5
 4/4                     5/8
    E   E E E E E  E  E    E   E  E  E  E
|-----------------------|------------------||
|-----------------------|------------0-----||
|---------------------2-|---------2--------||
|-----------6------0----|------0-----------||
|---------5-----4-------|------------------||
|-------4-----1---------|--2---------------||
|---2-------------------|---------------3--||
|
|                  <  <    <   <
|  +Q     H        E  E    E   E  E  E  E
|-----------------------|-----13-----------||
|-(14)\-----------12-14-|-15-----15-14p12--||
|-----------------------|------------------||
|-----------------------|------------------||
|-----------------------|------------------||
|-----------------------|------------------||
|-----------------------|------------------||
|
|   W                      Q.        E  E
|-----------------------|------------------||
|-----------------------|------------------||
|-----------------------|------------------||
|-----------------------|---------------7--||
|-----------------------|---------------5--||
|-----------------------|---------------5--||
|-----------------------|---------------3--||


   4/4 Buildup
       C#5   B5                   D5  C#5     B5                  D5
   4/4
    Gtrs II, III
        H    H       +H.      +E  E     H     H      +H.      +E  E
||----------------|-----------------|--------------|----------------|
||----------------|-----------------|--------------|----------------|
||o---------------|-----------------|--------------|----------------|
||------6----4----|--(4)------(4)-7-|---6-----4----|-(4)------(4)-7-|
||o-----4----2----|--(2)------(2)-5-|---4-----2----|-(2)------(2)-5-|
||------4----2----|--(2)------(2)-5-|---4-----2----|-(2)------(2)-5-|
||------2----0----|--(0)------(0)-3-|---2-----0----|-(0)------(0)-3-|
|
|   Gtr I
|                                       >
|       ~~~~~~~~~~~~~~~~~~~~~~~~~~~~~~~~~~~
|    a  W            +W                +W             W
||--14s16---------|-(16)------------|-(16)---------|----------------|
||----------------|-----------------|--------------|----------------|
||o---------------|-----------------|--------------|----------------|
||----------------|-----------------|--------------|----------------|
||o---------------|-----------------|--------------|----------------|
||----------------|-----------------|--------------|----------------|
||----------------|-----------------|--------------|----------------|


  C#5  B5                  D5  C#5  B5
  H    H      +H.      +E  E   H    H
|-----------|----------------|-----------|
|-----------|----------------|-----------|
|-----------|----------------|-----------|
|-6----4----|-(4)------(4)-7-|-6----4----|
|-4----2----|-(2)------(2)-5-|-4----2----|
|-4----2----|-(2)------(2)-5-|-4----2----|
|-2----0----|-(0)------(0)-3-|-2----0----|


                       "7/4" Groove
  F5          D5                        C#5
                        PM--------------|
  H.      +E  E         S S S S S S S S e E Q
|----------------||-||-------------------------|
|----------------||-||-------------------------|
|-5-------(5)---o||-||o------------------------|
|-3-------(3)-7--||-||--7-7-7-7-7-7-7-7-6------|
|-3-------(3)-5-o||-||o-5-5-5-5-5-5-5-5-4------|
|-1-------(1)-5--||-||--5-5-5-5-5-5-5-5-4------|
|-------------3--||-||--3-3-3-3-3-3-3-3-2------|


  D5              C#5   D5              C#5      D5              C#5
 3/4                   4/4                      3/4
  PM--------------|     PM--------------|        PM--------------|
  S S S S S S S S e E   S S S S S S S S e E Q    S S S S S S S S e E  6x
|---------------------|------------------------|----------------------||
|---------------------|------------------------|----------------------||
|---------------------|------------------------|---------------------o||
|-7-7-7-7-7-7-7-7-6---|-7-7-7-7-7-7-7-7-6------|-7-7-7-7-7-7-7-7-6----||
|-5-5-5-5-5-5-5-5-4---|-5-5-5-5-5-5-5-5-4------|-5-5-5-5-5-5-5-5-4---o||
|-5-5-5-5-5-5-5-5-4---|-5-5-5-5-5-5-5-5-4------|-5-5-5-5-5-5-5-5-4----||
|-3-3-3-3-3-3-3-3-2---|-3-3-3-3-3-3-3-3-2------|-3-3-3-3-3-3-3-3-2----||


 Guitar Solo II
  D5                      C#5                       D5                      C#5
 4/4                                               3/4
  Gtr I
         T                                   T                   T                 T
   S  S  S  S  S  S  S  S  S  S  S  S  S  S  S  S    S  S  S  S  S  S  S  S  S  S  S  S
|-------------------------------------------------|-------------19p13-------------------|
|-------19p13-12h15-------19p13-12h15-------19p13-|-12h15-------------12h15-------19p13-|
|-13h16-------------13h16-------------13h16-------|-------13h16-------------13h16-------|
|-------------------------------------------------|-------------------------------------|
|-------------------------------------------------|-------------------------------------|
|-------------------------------------------------|-------------------------------------|
|-------------------------------------------------|-------------------------------------|
|
| Gtrs II, III
|  PM---------------------|                          PM---------------------|
|  S  S  S  S  S  S  S  S  e     E     Q             S  S  S  S  S  S  S  S  e     E
|-------------------------------------------------|-------------------------------------|
|-------------------------------------------------|-------------------------------------|
|-------------------------------------------------|-------------------------------------|
|--7--7--7--7--7--7--7--7--6----------------------|--7--7--7--7--7--7--7--7--6----------|
|--5--5--5--5--5--5--5--5--4----------------------|--5--5--5--5--5--5--5--5--4----------|
|--5--5--5--5--5--5--5--5--4----------------------|--5--5--5--5--5--5--5--5--4----------|
|--3--3--3--3--3--3--3--3--2----------------------|--3--3--3--3--3--3--3--3--2----------|


  D5                      C#5
 4/4
               T                 T
   S  S  S  S  S  S  S  S  S  S  S  S  S  S  S  S
|-------------19p13---------------------------------|
|-12h15-------------12h15-------20p14-13h16---------|
|-------13h16-------------13h17-------------14h17---|
|---------------------------------------------------|
|---------------------------------------------------|
|---------------------------------------------------|
|---------------------------------------------------|
|
|  PM---------------------|
|  S  S  S  S  S  S  S  S  e     E     Q
|---------------------------------------------------|
|---------------------------------------------------|
|---------------------------------------------------|
|--7--7--7--7--7--7--7--7--6------------------------|
|--5--5--5--5--5--5--5--5--4------------------------|
|--5--5--5--5--5--5--5--5--4------------------------|
|--3--3--3--3--3--3--3--3--2------------------------|


  D5                      C#5
 3/4
   T                 T
   S  S  S  S  S  S  S  S  S  S  S  S
|-------------------------------------|
|-20p14-13h16-------20p14-13h16-------|
|-------------14h17-------------14h17-|
|-------------------------------------|
|-------------------------------------|
|-------------------------------------|
|-------------------------------------|
|
|  PM---------------------|
|  S  S  S  S  S  S  S  S  e     E
|-------------------------------------|
|-------------------------------------|
|-------------------------------------|
|--7--7--7--7--7--7--7--7--6----------|
|--5--5--5--5--5--5--5--5--4----------|
|--5--5--5--5--5--5--5--5--4----------|
|--3--3--3--3--3--3--3--3--2----------|


  D5                      C#5                       D5                      C#5
 4/4                                               3/4
   T                 T                 T                   T                 T
   S  S  S  S  S  S  S  S  S  S  S  S  S  S  S  S    S  S  S  S  S  S  S  S  S  S  S  S
|-20p14-------------------------------20p14-------|-------------------------------------|
|-------14h16-------20p15-14h16-------------14h16-|-------20p15-14h16-------19p11-------|
|-------------15h18-------------15h18-------------|-15h18-------------15h18-------14h19-|
|-------------------------------------------------|-------------------------------------|
|-------------------------------------------------|-------------------------------------|
|-------------------------------------------------|-------------------------------------|
|-------------------------------------------------|-------------------------------------|
|
|  PM---------------------|                          PM---------------------|
|  S  S  S  S  S  S  S  S  e     E     Q             S  S  S  S  S  S  S  S  e     E
|-------------------------------------------------|-------------------------------------|
|-------------------------------------------------|-------------------------------------|
|-------------------------------------------------|-------------------------------------|
|--7--7--7--7--7--7--7--7--6----------------------|--7--7--7--7--7--7--7--7--6----------|
|--5--5--5--5--5--5--5--5--4----------------------|--5--5--5--5--5--5--5--5--4----------|
|--5--5--5--5--5--5--5--5--4----------------------|--5--5--5--5--5--5--5--5--4----------|
|--3--3--3--3--3--3--3--3--2----------------------|--3--3--3--3--3--3--3--3--2----------|


  D5                      C#5       D5                      C#5
 4/4                               3/4
   T     T        T
   S  S  S  S  S  S  S  S  e E Q     Q            +H
|-------------------------16------|-13b15========(13)-----------|
|-20p11-19p13-12h15---------------|-----------------------------|
|-------------------13h16---------|-----------------------------|
|---------------------------------|-----------------------------|
|---------------------------------|-----------------------------|
|---------------------------------|-----------------------------|
|---------------------------------|-----------------------------|
|
|  PM---------------------|          PM---------------------|
|  S  S  S  S  S  S  S  S  e E Q     S     S S S   S  S S S e E
|---------------------------------|-----------------------------|
|---------------------------------|-----------------------------|
|---------------------------------|-----------------------------|
|--7--7--7--7--7--7--7--7--6------|--7-----7-7-7---7--7-7-7-6---|
|--5--5--5--5--5--5--5--5--4------|--5-----5-5-5---5--5-5-5-4---|
|--5--5--5--5--5--5--5--5--4------|--5-----5-5-5---5--5-5-5-4---|
|--3--3--3--3--3--3--3--3--2------|--3-----3-3-3---3--3-3-3-2---|


  D5                               C#5
 4/4
                                        T        T
   +Q          a       +S   E.     Q    S  S  S  S
|-(13)-------(13)b16==(13)r-------------------------|
|-----------------------------------------------19p=|
|--------------------------------------19p11h14-----|
|---------------------------------------------------|
|---------------------------------------------------|
|---------------------------------------------------|
|---------------------------------------------------|
|
|   PM-----------------------------|
|   S  S S S            S   S  S S e E  Q
|---------------------------------------------------|
|---------------------------------------------------|
|---------------------------------------------------|
|---7--7-7-7------------7---7--7-7-6----------------|
|---5--5-5-5------------5---5--5-5-4----------------|
|---5--5-5-5------------5---5--5-5-4----------------|
|---3--3-3-3------------3---3--3-3-2----------------|


  D5                      C#5           D5                     C#5
 3/4                                   4/4
         T        T        T        T          T        T
   S  S  S  S  S  S  S  S  S  S  S  S    S  S  S  S  S  S  e   Q   Q
|-------------------------------------|-------------------------------|
|-11-------------19p11-------------19p|=11-------------19p11----------|
|-------------------------------------|-------------------------------|
|----14-19p11h14-------14-19p11h14----|----14-19p11h14----------------|
|-------------------------------------|-------------------------------|
|-------------------------------------|-------------------------------|
|-------------------------------------|-------------------------------|
|
|  PM---------------------|              PM--------------------|
|  S  S  S  S  S  S  S  S  e     E       S  S  S  S  S  S  S S e E Q
|-------------------------------------|-------------------------------|
|-------------------------------------|-------------------------------|
|-------------------------------------|-------------------------------|
|--7--7--7--7--7--7--7--7--6----------|--7--7--7--7--7--7--7-7-6------|
|--5--5--5--5--5--5--5--5--4----------|--5--5--5--5--5--5--5-5-4------|
|--5--5--5--5--5--5--5--5--4----------|--5--5--5--5--5--5--5-5-4------|
|--3--3--3--3--3--3--3--3--2----------|--3--3--3--3--3--3--3-3-2------|


  D5
 3/4
            T                  T
   S  S  S  S  S  S  S  S  S   S   S  S
|----------19p13-------------(19)p13------|
|-15-------------12h15---------------12h==|
|----13h16-------------13h16--------------|
|-----------------------------------------|
|-----------------------------------------|
|-----------------------------------------|
|-----------------------------------------|
|
|  PM---------------------|
|  S  S  S  S  S  S  S  S  e       E
|-----------------------------------------|
|-----------------------------------------|
|-----------------------------------------|
|--7--7--7--7--7--7--7--7--6--------------|
|--5--5--5--5--5--5--5--5--4--------------|
|--5--5--5--5--5--5--5--5--4--------------|
|--3--3--3--3--3--3--3--3--2--------------|


  D5                      C#5
 4/4
            T                 T                 T
   S  S  S  S  S  S  S  S  S  S  S  S  S  S  S  S
|----------------------------------------------21p|
|-15-------20p15-------------21p15-14h17----------|
|----13h16-------18h20-15h18-------------16h19----|
|-------------------------------------------------|
|-------------------------------------------------|
|-------------------------------------------------|
|-------------------------------------------------|
|
|  PM---------------------|
|  S  S  S  S  S  S  S  S  e     E     Q
|-------------------------------------------------|
|-------------------------------------------------|
|-------------------------------------------------|
|--7--7--7--7--7--7--7--7--6----------------------|
|--5--5--5--5--5--5--5--5--4----------------------|
|--5--5--5--5--5--5--5--5--4----------------------|
|--3--3--3--3--3--3--3--3--2----------------------|


  D5                      C#5
 3/4
                                    T
   S  S  S  S  S  S  S  S  S  S  S  S
|-15-------------------------------22p=|
|----15h17-------14h17-15h19-----------|
|----------16h19-------------17h19-----|
|--------------------------------------|
|--------------------------------------|
|--------------------------------------|
|--------------------------------------|
|
|  PM---------------------|
|  S  S  S  S  S  S  S  S  e     E
|--------------------------------------|
|--------------------------------------|
|--------------------------------------|
|--7--7--7--7--7--7--7--7--6-----------|
|--5--5--5--5--5--5--5--5--4-----------|
|--5--5--5--5--5--5--5--5--4-----------|
|--3--3--3--3--3--3--3--3--2-----------|


  D5                        C#5
 4/4
                   T         T     T           T
   S  S  S  S  S   S   S  S  S  S  S  S  S  S  S  S
|-16------------------------------------------------|
|----16h18------------------------------------------|
|----------------(20)p14p13-21p12----------11-19p13p|
|----------16h18------------------20p12h13----------|
|---------------------------------------------------|
|---------------------------------------------------|
|---------------------------------------------------|
|
|  PM-----------------------|
|  S  S  S  S  S   S   S  S  e     E     Q
|---------------------------------------------------|
|---------------------------------------------------|
|---------------------------------------------------|
|--7--7--7--7--7---7---7--7--6----------------------|
|--5--5--5--5--5---5---5--5--4----------------------|
|--5--5--5--5--5---5---5--5--4----------------------|
|--3--3--3--3--3---3---3--3--2----------------------|


  D5                      C#5
 3/4
      T        T     T
   S  S  S  S  S  S  S  S  e E
|-------------------------------||
|----19p10h12-------------------||
|-11----------17p11-------------||
|-------------------17p12p11----||
|-------------------------------||
|-------------------------------||
|-------------------------------||
|
|  PM---------------------|
|  S  S  S  S  S  S  S  S  e E
|-------------------------------||
|-------------------------------||
|-------------------------------||
|--7--7--7--7--7--7--7--7--6----||
|--5--5--5--5--5--5--5--5--4----||
|--5--5--5--5--5--5--5--5--4----||
|--3--3--3--3--3--3--3--3--2----||


   "7/4" Groove Variations
                                                          1.,2.,3.
    C5
   4/4           3/4              4/4                    3/4
    Gtrs II, III
    PM----|       PM-----------------------------------------------------|
    |-3-|         |-3-|
    Q Q Q q  Q    Q Q Q q   4x     E. S +E  E +S  e. Q    E. S +E  E +S  e.
||--------------|-----------||-||-----------------------|--------------------||
||--------------|-----------||-||-----------------------|--------------------||
||o-------------|----------o||-||o----------------------|-------------------o||
||--5-5-5-5-----|-5-5-5-5---||-||--5--5-(5)-5-(5)-5-----|-5--5-(5)-5-(5)-5---||
||o-3-3-3-3-----|-3-3-3-3--o||-||o-3--3-(3)-3-(3)-3-----|-3--3-(3)-3-(3)-3--o||
||--3-3-3-3-----|-3-3-3-3---||-||--3--3-(3)-3-(3)-3-----|-3--3-(3)-3-(3)-3---||
||--1-1-1-1-----|-1-1-1-1---||-||--1--1-(1)-1-(1)-1-----|-1--1-(1)-1-(1)-1---||


                                       Pre Verse Variation
  4.
               B5                       EbD5C#EbD5C#EbD5C#5
 2/4          4/4                      17/16
  Gtr II
  PM-------|
  E. S +E  E   W          +W            S E E S E E S E E E
|------------|----------|------------||----------------------|
|------------|----------|------------||----------------------|
|------------|----------|------------||----------------------|
|-5--5-(5)-5-|-4--------|-(4)--------||----------------------|
|-3--3-(3)-3-|-2--------|-(2)--------||-6s5-4-6s5-4-6s5-4-4--|
|-3--3-(3)-3-|-2--------|-(2)--------||-6s5-4-6s5-4-6s5-4-4--|
|-1--1-(1)-1-|-0--------|-(0)--------||-4s3-2-4s3-2-4s3-2-2--|
|
| Gtr III
| PM-------|
| E. S +E  E   W          +W            S e E E.  E E.  E E
|------------|----------|------------||----------------------|
|------------|----------|------------||----------------------|
|------------|----------|------------||----------------------|
|-5--5-(5)-5-|-4--------|-(4)--------||----------------------|
|-3--3-(3)-3-|-2--------|-(2)--------||-6s5-------4-----4-4--|
|-3--3-(3)-3-|-2--------|-(2)--------||-6s5-------4-----4-4--|
|-1--1-(1)-1-|-0--------|-(0)--------||-4s3-------2-----2-2--|


  EbD5C#EbD5C#EbD5C#5   EbD5C#EbD5C#EbD5C#5   EbD5C#EbD5C#5
                                             16/16
  S E E S E E S E E E   S E E S E E S E E E   S E E S E e Q.
|---------------------|---------------------|------------------||
|---------------------|---------------------|------------------||
|---------------------|---------------------|------------------||
|---------------------|---------------------|------------------||
|-6s5-4-6s5-4-6s5-4-4-|-6s5-4-6s5-4-6s5-4-4-|-6s5-4-6s5-4------||
|-6s5-4-6s5-4-6s5-4-4-|-6s5-4-6s5-4-6s5-4-4-|-6s5-4-6s5-4------||
|-4s3-2-4s3-2-4s3-2-2-|-4s3-2-4s3-2-4s3-2-2-|-4s3-2-4s3-2------||
|
| E.  E E.  E E.  E E   E.  E E.  E E.  E E   E.  E E.  e Q.
|---------------------|---------------------|------------------||
|---------------------|---------------------|------------------||
|---------------------|---------------------|------------------||
|---------------------|---------------------|------------------||
|-----4-----4-----4-4-|-----4-----4-----4-4-|-----4-----4------||
|-----4-----4-----4-4-|-----4-----4-----4-4-|-----4-----4------||
|-----2-----2-----2-2-|-----2-----2-----2-2-|-----2-----2------||


    EbD5C#5   EbD5C#EbD5    C#5
   4/4
    Gtrs II, III
    S E S +S  S E E S S +S  E S
||------------------------------|
||------------------------------|
||o-----------------------------|
||------------------------------|
||o-6s5-4-(4)-6s5-4-6s5-(5)-4-4-|
||--6s5-4-(4)-6s5-4-6s5-(5)-4-4-|
||--4s3-2-(2)-4s3-2-4s3-(3)-2-2-|


        EbD5  C#5 EbD5C#5     EbD5    C#EbD5C#EbD5C#5
      PM
  +E  E E S S +S  E S E E   E S S +S  E S E E S E S
|-------------------------|-------------------------|
|-------------------------|-------------------------|
|-------------------------|-------------------------|
|-------------------------|-------------------------|
|-(4)---4-6s5-(5)-4-6s5-4-|-4-6s5-(5)-4-6s5-4-6s5-4-|
|-(4)-4-4-6s5-(5)-4-6s5-4-|-4-6s5-(5)-4-6s5-4-6s5-4-|
|-(2)-2-2-4s3-(3)-2-4s3-2-|-2-4s3-(3)-2-4s3-2-4s3-2-|


             EbD5C#5   EbD5
         PM
  +S  E. E E S E S +S  S E
|---------------------------||-|
|---------------------------||-|
|--------------------------o||-|
|---------------------------||-|
|-(4)-4----4-6s5-4-(4)-6s5-o||-|
|-(4)-4--4-4-6s5-4-(4)-6s5--||-|
|-(2)-2--2-2-4s3-2-(2)-4s3--||-|


   Bridge Variation
    Eb5D5    C5      B5    C5  B5 C5  B5 C5B5    C5
                   PM      PM     PM     PM      PM
    E. S +E  E +S  e S +E  e   E. S S E. e E +S  e S
||---------------------------|------------------------|
||---------------------------|------------------------|
||o--------------------------|------------------------|
||--8--7-(7)-5-(5)-----------|------------------------|
||o-6--5-(5)-3-(3)-3-2-(2)-3-|-2--3---2--3-2-(2)-3-x--|
||--6--5-(5)-3-(3)-3-2-(2)-3-|-2--3---2--3-2-(2)-3-x--|
||--4--3-(3)-1-(1)-1-0-(0)-1-|-0--1---0--1-0-(0)-1-x--|


                                                          Odd-Time Interlude
     Eb5   D5    C5B5    C5  B5 C5  B5 C5B5    C5          Fm7      C#C5
                                                          5/8
                 PM      PM     PM     PM      PM                   PM|
  E. S +E  E +S  e S +E  e   E. S S E. e E +S  e S         E. S +E  e e
|--------------------------|------------------------||-||---------------|
|--------------------------|------------------------||-||---------------|
|--------------------------|-----------------------o||-||o--------------|
|-5--8-(8)-7-(7)-----------|------------------------||-||--6--6-(6)-----|
|-3--6-(6)-5-(5)-3-2-(2)-3-|-2--3---2--3-2-(2)-3-x-o||-||o-6--6-(6)-----|
|-3--6-(6)-5-(5)-3-2-(2)-3-|-2--3---2--3-2-(2)-3-x--||-||--4--4-(4)-4-3-|
|-1--4-(4)-3-(3)-1-0-(0)-1-|-0--1---0--1-0-(0)-1-x--||-||--6--6-(6)-2-1-|


  Fm7      C#C5C#C5  Fm7      C#C5  Fmaj7    EbD5C5D5Eb5
 7/8                5/8            4/4
           PM----|            PM|            PM------|
  E. S +E  e e e e   E. S +E  e e   E. S +E  e e e e E  4x
|------------------|--------------|---------------------||
|------------------|--------------|---------------------||
|------------------|--------------|--------------------o||
|-6--6-(6)---------|-6--6-(6)-----|-7--7-(7)------------||
|-6--6-(6)---------|-6--6-(6)-----|-7--7-(7)-----------o||
|-4--4-(4)-4-3-4-3-|-4--4-(4)-4-3-|-5--5-(5)-6-5-3-5-6--||
|-6--6-(6)-2-1-2-1-|-6--6-(6)-2-1-|-6--6-(6)-4-3-1-3-4--||


   Outro
    C5
    Gtr I
     q      q      q      q        7x
||--14-----14-----14-----14--------||
||--18-----18-----18-----18--------||
||o-------------------------------o||
||---------------------------------||
||o-------------------------------o||
||---------------------------------||
||---------------------------------||
|
|   Gtrs II, III
|    PM------------------------------
|    S S e  S S e  S S e  S S S S  7x
||---------------------------------||
||---------------------------------||
||o-------------------------------o||
||---5-5-5----5-5----5-5----5-5-5--||
||o--3-3-3----3-3----3-3----3-3-3-o||
||---3-3-3----3-3----3-3----3-3-3--||
||---1-1-1----1-1----1-1----1-1-1--||


                                  B5
   q      q      q      q          q    Q  H
|-14-----14-----14-----14-------|-14------------*|
|-18-----18-----18-----18-------|-18------------*|
|-------------------------------|---------------*|
|-------------------------------|---------------*|
|-------------------------------|---------------*|
|-------------------------------|---------------*|
|-------------------------------|---------------*|
|
|---------------------------------|
|  S S E  S S E  S S E  S S S S    e Q.    H
|-------------------------------|---------------*|
|-------------------------------|---------------*|
|-------------------------------|---------------*|
|--5-5-5--5-5-5--5-5-5--5-5-5-5-|--4------------*|
|--3-3-3--3-3-3--3-3-3--3-3-3-3-|--2------------*|
|--3-3-3--3-3-3--3-3-3--3-3-3-3-|--2------------*|
|--1-1-1--1-1-1--1-1-1--1-1-1-1-|--0------------*|



Duration Legend
---------------
W - whole; H - half; Q - quarter; E - 8th; S - 16th; T - 32nd; X - 64th; a - acciaccatura
+ - note tied to previous; . - note dotted; .. - note double dotted
Uncapitalized letters represent notes that are staccato (1/2 duration)
Irregular groupings are notated above the duration line
Duration letters will always appear directly above the note/fret number it represents the
duration for.  Duration letters with no fret number below them represent rests.  Multi-
bar rests are notated in the form Wxn, where n is the number of bars to rest for.  Low
melody durations appear below the staff

Tablature Legend
----------------
 h   - hammer-on
 p   - pull-off
 b   - bend
 pb  - pre-bend
 r   - bend release (if no number after the r, then release immediately)
 /\  - slide into or out of (from/to "nowhere")
 s   - legato slide
 S   - shift slide
 - natural harmonic
[n]  - artificial harmonic
n(n) - tapped harmonic
 ~   - vibrato
 tr  - trill
 T   - tap
 TP  - trem. picking
 PM  - palm muting
\n/  - tremolo bar dip; n = amount to dip
 \n  - tremolo bar down
 n/  - tremolo bar up
/n\  - tremolo bar inverted dip
 =   - hold bend; also acts as connecting device for hammers/pulls
 <> - volume swell (louder/softer)
 x   - on rhythm slash represents muted slash
 o   - on rhythm slash represents single note slash

Misc Legend
-----------
 |  - bar
||  - double bar
||o - repeat start
o|| - repeat end
*|  - double bar (ending)
 :  - bar (freetime)
 $  - Segno
 &  - Coda
Tempo markers -  = BPM(8/16=s8/s16), where s8 = swing 8ths, s16 = swing 16ths

Добавлено: 18.07.2012
Другие материалы по этой песне:

Страница создана 14.03.2012
http://primanota.ru/meshuggah/future-breed-machine-chords.htm
Привет, Гость.
Предлагаем пройти революционный курс по гитаре.
Подарок от PrimaNota.Ru, забирай!