PrimaNota.ru - самый крупный в мире бесплатный архив песенных текстов, аккордов, табулатур и нот


Джулиани Мауро - Allegro Etude In A Minor - таба, видео

Регистрация Запомнить меня
Войти через:  Facebook Google Twitter Vk Yandex Mail.ru

Джулиани Мауро - Allegro Etude In A Minor - таба, видео

Печатать
Просмотров: 449
Уроки эстрадного вокала в Санкт-Петербурге
E-|---Song:-Allegro Etude--------------------------|
A-|---Author:-Mauro Giuliani-----------------------|
D-|---Transcription-by:Christian Liang-------------|
G-|---E-Mail:christian.liang@gmail.com-------------|   
B-|---http://www.classclef.com---------------------|
E-|---Enjoy!---------------------------------------|

Allegro Etude in A Minor- Mauro Giuliani (1781-1829)
 
p = pulgar = thumb
i = indice = index
m = medio = middle
a = anular = ring


Exercise: ( p i m i a i m i )

[1] Am						          
               
e|-------------0----------|------------------------|
B|-------1-----------1----|------------------------|
G|----2-----2-----2-----2-|----2-----2-----2-----2-|
D|------------------------|------------------------|
A|-0----------------------|-0-----2-----3-----0----|
E|------------------------|------------------------|
   |  |  |  |  |  |  |  |   |  |  |  |  |  |  |  |  
RH p  i  m  i  a  i  m  i   p  i  p  i  p  i  p  i  
LH    3  1  3     3  1  3      3  2  3  4  3     3      


[3]Dm

e|-------------1----------|------------------------|
B|-------3-----------3----|------------------------|
G|----2-----2-----2-----2-|----2-----2-----2-----2-|
D|-0----------------------|-0-----2-----3-----0----|
A|------------------------|------------------------|
E|------------------------|------------------------|
   |  |  |  |  |  |  |  |   |  |  |  |  |  |  |  |
RH p  i  m  i  a  i  m  i   p  i  p  i  p  i  p  i
LH    2  4  2  1  2  4  2      2  3  2  3  2     2


[5] E                                               

e|-------------0----------|------------------------|
B|-------0-----------0----|------------------------|
G|----1-----1-----1-----1-|----1-----1-----1-----1-|
D|-2----------------------|-2-----3-----2-----0----|
A|------------------------|------------------------|
E|------------------------|------------------------|
   |  |  |  |  |  |  |  |   |  |  |  |  |  |  |  |  
RH p  i  m  i  a  i  m  i   p  i  p  i  p  i  p  i   
LH 2  1     1     1     1   2  1  3  1  2  1     1   


[7]Am/C                     E7/B

e|-------------0----------|-------------0----------|
B|-------1-----------1----|-------3-----------3----|
G|----2-----2-----2-----2-|----1-----1-----1-----1-|
D|------------------------|------------------------|
A|-3----------------------|-2----------------------|
E|------------------------|------------------------|
   |  |  |  |  |  |  |  |   |  |  |  |  |  |  |  |
RH p  i  m  i  a  i  m  i   p  i  m  i  a  i  m  i
LH 3  2  1  2     2  1  2   2  1  4  1     1  4  1


[9] Am					            

e|-------------0----------|------------------------|
B|-------1-----------1----|------------------------|
G|----2-----2-----2-----2-|----2-----2-----2-----2-|
D|------------------------|------------------------|
A|-0----------------------|-0-----2-----3-----0----|
E|------------------------|------------------------|
   |  |  |  |  |  |  |  |   |  |  |  |  |  |  |  |   
RH p  i  m  i  a  i  m  i   p  i  p  i  p  i  p  i   
LH    3  1  3     3  1  3      3  2  3  4  3     3      


[11]Dm

e|-------------1----------|------------------------|
B|-------3-----------3----|------------------------|
G|----2-----2-----2-----2-|----2-----2-----2-----2-|
D|-0----------------------|-0-----2-----3-----0----|
A|------------------------|------------------------|
E|------------------------|------------------------|
   |  |  |  |  |  |  |  |   |  |  |  |  |  |  |  |
RH p  i  m  i  a  i  m  i   p  i  p  i  p  i  p  i
LH 2  4  2  1  2  4  2      2  3  2  3  2     2


[13] Am/E                  Am/E                     

e|-------------0----------|-------------0----------|
B|-------1-----------1----|-------1-----------1----|
G|----2-----2-----2-----2-|----2-----2-----2-----2-|
D|-2----------------------|------------------------|
A|------------------------|------------------------|
E|------------------------|-0----------------------|
   |  |  |  |  |  |  |  |   |  |  |  |  |  |  |  |  
RH p  i  m  i  a  i  m  i   p  i  m  i  a  i  m  i   
LH 2  3  1  3     3  1  3      3  1  3     3  1  3  
 

[15]Am9/E                    E

e|-------------0----------|-------------0----------|
B|-------0-----------0----|-------0-----------0----|
G|----2-----2-----2-----2-|----1-----1-----1-----1-|
D|-2----------------------|------------------------|
A|------------------------|------------------------|
E|------------------------|-0----------------------|
   |  |  |  |  |  |  |  |   |  |  |  |  |  |  |  |
RH p  i  m  i  a  i  m  i   p  i  m  i  a  i  m  i
LH 2  3     3     3     3      1     1     1     1


[17] Am        E7           Am          E            

e|----------0-----------0-|----------0-----------0-|
B|-------1-----------3----|-------1-----------0----|
G|----2-----------1-------|----2-----------1-------|
D|------------------------|------------------------|
A|-0----------------------|-0----------------------|
E|-------------0----------|-------------0----------|
   |  |  |  |  |  |  |  |   |  |  |  |  |  |  |  |   
RH p  i  m  a  p  i  m  a   p  i  m  a  p  i  m  a   
LH    2  1        1  4         2  1        1       


[19]Am          E7           Am          E

e|----------0-----------0-|----------0-----------0-|
B|-------1-----------3----|-------1-----------0----|
G|----2-----------1-------|----2-----------1-------|
D|------------------------|------------------------|
A|-0----------------------|-0----------------------|
E|-------------0----------|-------------0----------|
   |  |  |  |  |  |  |  |   |  |  |  |  |  |  |  |
RH p  i  m  a  p  i  m  a   p  i  m  a  p  i  m  a
LH    2  1        1  4         2  1        1  


[21] Am

e|------------------------|
B|------------------------|
G|-2----------------------|
D|------------------------|
A|-0----------------------|
E|------------------------|
   | 
RH p,i
LH 2

Добавлено: 23.05.2012
Другие материалы по этой песне:

Страница создана 09.05.2012
http://primanota.ru/mauro-giuliani/allegro-etude-in-a-minor-chords.htm
Привет, Гость.
Предлагаем пройти революционный курс по гитаре.
Подарок от PrimaNota.Ru, забирай!