PrimaNota.ru - самый крупный в мире бесплатный архив песенных текстов, аккордов, табулатур и нот


Джулиани Мауро - Etude In A Minor - таба, видео

Регистрация Запомнить меня
Войти через:  Facebook Google Twitter Vk Yandex Mail.ru

Джулиани Мауро - Etude In A Minor - таба, видео

Печатать
Просмотров: 261
E-|---Song:-Etude-in-A-Minor-----------------------|
A-|---Author:-Mauro-Giuliani-----------------------|
D-|---Transcription-by:Christian Liang-------------|
G-|---E-Mail:christian.liang@gmail.com-------------|
B-|---http://www.classclef.com---------------------|
E-|---Enjoy!---------------------------------------|


Etude in A Minor by Mauro Giuliani


Mauro Giuseppe Sergio Pantaleo Giuliani (July 27, 1781 – May 8, 1829) was an Italian 
and composer, and is
considered by many to be one of the leading guitar virtuosi of the early 19th century. 
first instrumental
training was on the cello—an instrument which he never completely abandoned—and he 
also studied the violin.
Subsequently he devoted himself to the guitar, becoming a very skilled performer on it 
a short time.
In this song "Etude in A minor" you will play the lead with bass and treble strings.

Technique
-Lots of thumb action and finger gymnastics. Suspension of bass/treble notes.
-Bar[12]-[16] In these 4 Bars, you will enounter a series of rapid bass notes (struck 
thumb).
Make sure the treble notes are suspended and heard.
-2 half barred chords at the end (first fret). 35 total bars. Played straight with no repeats.

Tips
-The suggested Left hand fingering may be weird at first but you will soon notice the 
position sets up for the next
finger placement. Sort of like looking ahead to facillate playing.


[1]
E|-----------------|-----------------|-0-3-1-0---------|-----------------|
B|---------0======-|-1======-3======-|---------3-1-0---|-----------------|
G|-2=======--------|-----------------|---------------2-|-1=======--------|
D|-----------------|-----------------|---------0---1---|-2-3-2-0---0-----|
A|-0-3-2-0---------|-0-2-3-0-2---0-2-|-3=======--------|---------3---3-2-|
E|---------4-0-2-4-|-----------3-----|-----------------|-----------------|
 | | | | | | | | | | | | | | | | | | | | | | | | | | | | | | | | | | | | |
R  2 3 1   4   2 4   1 2 3   4 3   2   3 4 1   4 2 1 3   1 4 2   3   3 2
                             2                           2
R  i p p p m p p p   m p p p m p p p p a m i m m i m i   i p p p p i p p
   p       p         p       p         p       p   p     p

[5]
E|-----------------|-----------------|-0---------------|---------0======-|
B|---------0======-|-1======-3======-|---1---3-1---0---|-1======-1======-|
G|-2=======--------|-----------------|-----2-----0---0-|-----------------|
D|-----------------|-----------------|-----3---2---0---|-----------0-2-4-|
A|-0-3-2-0---------|-0-2-3-0-2---0-2-|-3---------------|-3======-3-------|
E|---------4-0-2-4-|-----------3-----|-----------------|-----------------|
 | | | | | | | | | | | | | | | | | | | | | | | | | | | | | | | | | | | | |
L  2 3 1   4   2 4   1 2 3   4 3   2   3 1 2 4 1         1       1   1 3
                             2             3   2         3       3
R  i p p p m p p p   m p p p m p p p   a m i m m i m i   m       a p p p
   p       p         p       p         p   p   p   p     p       m
                                                                 p
[9]
E|---------------0-|-1======-1======-|-----0-----------|-----------------|
B|-----3-------2---|-3======-3======-|-----2---------0-|---------0======-|
G|-----4-----2-----|-2======-------0-|-2=======----2---|-1======---------|
D|-5=======--------|-0======-0-2-3---|-----------1-----|-2======---------|
A|---------0======-|-----------------|---------2======-|-----------------|
E|-----------------|-----------------|-----------------|-0======-0-2-4-0-|
 | | | | | | | | | | | | | | | | | | | | | | | | | | | | | | | | | | | | |
L  3   1     2 3     1       1 2 3     2   3   2 1 3     1         2 4
       2             4       4                           2
                     2
R  p   m   p i m a   a       a p p p   p   m   p i m a   m       a p p p
       i             m       m             i             i       p
                     i       p                           p
                     p

[13]
E|-----------------|-0======-3======-|-2======-0======-|---------0-3-2-0-|
B|-1======-4======-|-----------------|-----------------|-4=======--------|
G|-----------------|-----------------|-----------------|-----------------|
D|-----------------|-----------------|-----------------|-----------------|
A|-0-2-3-0-2-3-2-0-|---0-2-----------|-0-2-3-0-2-3-2-0-|-2-0-------------|
E|-----------------|-3-----3-0-2-3-0-|-----------------|-----3-2-0======-|
 | | | | | | | | | | | | | | | | | | | | | | | | | | | | | | | | | | | | |
L  1 2 3   4 3 2     2   1 2 3 1 2     2 1 3   2 3 2     4   3 2   2 1
           2                                             2
R  m       m         m p p p a p p p   m p p p m p p p   i p p p m i m i
   p p p p p p p p   p       p         p       p         p

[17]
E|-----------3-2-0-|-----------0-2-3-|---2-3-5-----0-2-|---------0-------|
B|---4---0-0-------|---4---0-0-------|-----------4-----|-------0---0-----|
G|-----5-----------|-----5-----------|-----------------|-----0-------0---|
D|-----------------|-----------------|-----------------|---2-----------2-|
A|-----------------|-----------------|-0======-2======-|-----------------|
E|-2======-0======-|-2======-0======-|-----------------|-0=======--------|
 | | | | | | | | | | | | | | | | | | | | | | | | | | | | | | | | | | | | |
L  1 3 4     2 1     1 3 4       1 2     1 2 4 1 4   3     2           2
R  p m i m m a m i   p m i m m a m i   p i m i p i m m   p p i m a m i p
           p                 p

[21]
E|---------0-------|---------0-------|---------0-------|-----------------|
B|-------0---0-----|-------1---1-----|-------3---3-----|---------0======-|
G|-----1-------1---|-----2-------2---|-----1-------1---|-2=======--------|
D|---0-----------0-|-----------------|-----------------|-----------------|
A|-----------------|---3-----------3-|---2-----------2-|-0-3-2-0---------|
E|-0=======--------|-0=======--------|-0=======--------|---------4-0-2-4-|
 | | | | | | | | | | | | | | | | | | | | | | | | | | | | | | | | | | | | |
L      1       1       3 2 1   1 2 3     2 1 4   4 1 2   2 3 1   4   2 4
R  p p i m a m i p   p p i m a m i p   p p i m a m i p   i p p p m p p p
                                                         p       p
[25]
E|-----------------|-0-3-1-0---------|-----------------|-----------------|
B|-1======-3======-|---------3-1-0---|-----------------|---------0======-|
G|-----------------|---------------2-|-1=======--------|-2=======--------|
D|-----------------|---------0---1---|-2-3-2-0---0-----|-----------------|
A|-0-2-3-0-2---0-2-|-3=======--------|---------3---3-2-|-0-3-2-0---------|
E|-----------3-----|-----------------|-----------------|---------4-0-2-4-|
 | | | | | | | | | | | | | | | | | | | | | | | | | | | | | | | | | | | | |
L  1 2 3   4 3   2   3 4 1   4 2 1 3   1 4 2   3   3 2   2 3 1   4   2 4
           2                           2
R  m p p p m p p p p a m i m m i m i   i p p p p i p p   i p p p m p p p
   p       p         p       p   p     p                 p       p

[29]                                       I......           I......
E|---0-------1-----|-------0-------0-|-------1-0-------|-------1-0-------|
B|-1---3-1-0---3-0-|-----1-------0---|-----1-------0-3-|-----1-------0-3-|
G|-----------------|---2-------1-----|---2-------1-----|---2-------1-----|
D|---------0======-|-2=======--------|-----------------|-----------------|
A|-0=======--------|-----------------|-0=======--------|-0=======--------|
E|-----------------|---------0======-|---------0======-|---------0======-|
 | | | | | | | | | | | | | | | | | | | | | | | | | | | | | | | | | | | | |
R  1   4 1   1 4     2 3 1     1         2 1 1   1   4     2 1 1   1   4
R  m a m a m a m m   p i m a p i m a   p i m a a i m i   p i m a a i m i
                                               p                 p
[33]
E|-----------------|---------0-------|-----------------|
B|---1-------------|---------0-------|-1=======--------|
G|-------3---2---1-|-2======-1-------|-2=======--------|
D|-----0---2-------|-----------------|-2=======--------|
A|-0---------------|-0======---------|-0=======--------|
E|-------------0---|---------0-------|-----------------|
 | | | | | | | | | | | | | | | | | | | | | | | | | | | |
R    1   4 2 3   1   3       1         1,3,2
L  p m p i p i p i   i       i         p,i,m,a
                     p
Добавлено: 02.05.2012
Другие материалы по этой песне:

Страница создана 02.05.2012
http://primanota.ru/mauro-giuliani/etude-in-a-minor-chords.htm
Привет, Гость.
Предлагаем пройти революционный курс по гитаре.
Подарок от PrimaNota.Ru, забирай!