PrimaNota.ru - самый крупный в мире бесплатный архив песенных текстов, аккордов, табулатур и нот


Джулиани Мауро - Tarantella - таба, видео

Регистрация Запомнить меня
Войти через:  Facebook Google Twitter Vk Yandex Mail.ru

Джулиани Мауро - Tarantella - таба, видео

Печатать
Просмотров: 738
E-|---Song:-Tarantella-----------------------------|
A-|---Author:-Mauro Giuliani-----------------------|
D-|---Transcription-by:Christian Liang-------------|
G-|---E-Mail:christian.liang@gmail.com-------------|   
B-|---http://www.classclef.com---------------------|
E-|---Enjoy!---------------------------------------|

Tarantella- Mauro Giuliani (1781-1829)


p = pulgar = thumb
i = indice = index
m = medio = middle
a = anular = ring


Tuning: Standard
Signature: A minor
Time: 6/8
ABAC


PART A

[1]

E|----------------0-0-|--0-----------------|--------------------|
B|--------------------|-----3--1--1--0-----|-----0--------------|
G|--------------------|-----------------2--|--1-----1--------1--|
D|--------------------|--------------------|-----------2--4-----|
A|--------------------|--0-======-0-======-|--------------------|
E|--------------------|--------------------|--0-======-0-======-|
       |  |  |  |  |  |  |  |  |  |  |  |  |  |  |  |  |  |  |  |  
R                 a a    a  m  i  m  i  i     i  m  i  i  i  m     
                         p        p           p        p           

L                           4  1  1     2     1     1  2  4  1    
					    
[4]

E|--------------------|--------------0--0--|--0-----------------|
B|-----0--1--1--0-----|-----0--------------|-----3--1--1--0-----|
G|--2--------------2--|--1-----1-----------|-----------------2--|
D|--------------------|-----------2--------|--------------------|
A|--0-======-0-======-|--------------------|--0-======-0-======-|
E|--------------------|--0-======-0-======-|--------------------|
 |  |  |  |  |  |  |  |  |  |  |  |  |  |  | 
R   i  m  i  m  i  i     i  m  i  i  a  a     a  m  i  m  i  i     
    p        p           p        p           p        p           
L   2     1  1     2     1     1  2              4  1  1     2     

[7]

E|--------------------|-----------0--------|--------------3--3--|
B|-----0--------------|-----0--1-----3--0--|--------------------|
G|--1-----1--------1--|--2-----------------|--2-----------------|
D|-----------2--4-----|--------------------|-----2--------------|
A|--------------------|--0-======----------|--0-----3--0-======-|
E|--0-======-0-======-|-----------0-======-|--------------------|
 |  |  |  |  |  |  |  |  |  |  |  |  |  |  | 

R   i  m  i  i  i  m     i  m  i  a  m  i     m  i  p  p  a  a
    p        p           p        p           p 

L   1     1  2  4  1     2     1     4        3  2  4     4  4

PART B

[10]
E|--0--------0-----3--|--1-----------------|--0-----------0-----|
B|--------1-----------|-----------3--------|-----3--1--------3--|
G|--------0--------0--|--------0--------0--|-----------2-======-|
D|-----2--------2-----|-----0--------0-----|-----------3-======-|
A|--3-======-3-======-|--2-======-2-======-|--3-======----------|
E|--------------------|--------------------|--------------------|
 |  |  |  |  |  |  |  |  |  |  |  |  |  |  |  |  |  |  |  |  |  | 


R   a  p  m  a  p  a     a  i  m  a  i  m     a  m  i  i  a  m     
    p     i  p     i     p        p           p        p           
                                                                            

L   3  2  1  3  2  4     1        4           3  4  1  2     4     
                         2        2                    3           

					    
[13]

E|--------------3--3--|--3-----0-----0--3--|--1--------------0--|
B|--1--------0--------|-----------1--------|--------0-----3-----|
G|--------0-----------|--------0-----------|--------0-----------|
D|-----2-----0--------|-----2--------------|-----0--------------|
A|--3-======----------|--3-======-3-======-|--2-======-2-======-|
E|-----------3-======-|--------------------|--------------------|
 |  |  |  |  |  |  |  |  |  |  |  |  |  |  | 
R   a  i  m  a  a  a     a  p  a  m  a  a     a  p  m  p  m  a
    p        i           p     i     p        p     i 
             p  
L   1  2     3  4  4     4  2     1     4     1        2  4
    3                    3        3           2

				
[16]

E|-----0--------------|--------------0--0--|
B|--------1-----3--0--|--1-----------------|
G|--------------------|-----0--------------|   Part A once 
D|--------------------|--------2-----------|   then Part C
A|--3-======----------|--3-======-3-======-|
E|-----------3-======-|--------------------|
 |  |  |  |  |  |  |  |  |  |  |  |  |  |  | 

R   p  a  m  p  m  i     a  m  i  p  a  a
                         p

L   3     1  3  4        1     2  3  
                         3


PART C

[18]

E|--------------------|--------------------|--------0--------0--|
B|-----------0--------|--1--------0--------|-----------0--------|
G|--2-----------------|--------------------|--2-----------------|
D|-----2--2-----2--2--|-----2--2-----2--2--|-----2--------2-----|
A|--0-======----------|--0-======----------|--0-=====-----------|
E|-----------0-======-|-----------0-======-|-----------0-======-|
 |  |  |  |  |  |  |  |  |  |  |  |  |  |  |  |  |  |  |  |  |  |  

R   m  i  i  a  i  i     a  i  i  a  i  i     m  i  a  m  i  a     
    p        p           p        p           p        p           

L   3  2  2     2  2     1  2  2     2  2     3  2        2        


					    
[21]

E|-----------0--------|-----5--4--5--0-----|--------------------|
B|--1-----1-----3--0--|-----------------1--|--------------------|
G|-----2--------------|--2-----------------|-----2--1--2--------|
D|--------------------|--------------------|--------------2-----|
A|--0-======----------|--0-======-0-======-|--0-======-0-===-3--|
E|-----------0-======-|--------------------|--------------------|
 |  |  |  |  |  |  |  |  |  |  |  |  |  |  |  |  |  |  |  |  |  | 
R   m  i  m  a  m  i     m  a  m  a  m  i     p  m  i  m  i  p  
    p        p           p        p                    p 
L   1  2  1     4        1  4  3  4     1        3  1  3  2  4

					    

[24]                       V

E|-----------0-======-|--5-========--------|
B|-----------3-======-|--5-========--------|
G|-----------1-======-|--5-========--------|
D|--------------------|--------------------|
A|--0-======----------|--0-========--------|
E|-----------0-======-|--------------------|
 |  |  |  |  |  |  |  |  |  |  |  |  |  |  |  

R   p        a,m,i,p     a,m,i,p


L            1,4         1,1,1


----
Tips
----
'Tarantella' gots it's name from "tarantula" and is a typical 
dance of south of Italy. The locals believe that by dancing 
to this trance tune, a person who has been biten by a tarantula 
will be cured. Play this piece fast with suspended bass. There 
are 3 parts of the song each consisting of 8 measures. Play 
tarantella in this order ABAC. This song is fairlr easy once 
you play it a couple of times. Since there's only one barre 
chord and most suspended bass are played with open strings, 
it is also a good introductory song to the world of mauro giuliani. 

www.chrisliang.com



Добавлено: 15.03.2012
Другие материалы по этой песне:

Страница создана 15.03.2012
http://primanota.ru/mauro-giuliani/tarantella-chords.htm
Привет, Гость.
Предлагаем пройти революционный курс по гитаре.
Подарок от PrimaNota.Ru, забирай!