PrimaNota.ru - самый крупный в мире бесплатный архив песенных текстов, аккордов, табулатур и нот


Джулиани Мауро - Ecossaise - таба, видео

Регистрация Запомнить меня
Войти через:  Facebook Google Twitter Vk Yandex Mail.ru

Джулиани Мауро - Ecossaise - таба, видео

Печатать
Просмотров: 298
Уроки эстрадного вокала в Санкт-Петербурге
E-|---Song:-Ecossaise------------------------------|
A-|---Author:-Mario Giuliani-----------------------|
D-|---Transcription-by:Christian Liang-------------|
G-|---E-Mail:christian.liang@gmail.com-------------|   
B-|---http://www.classclef.com---------------------|
E-|---Enjoy!---------------------------------------|

Ecossaise- Mario Giuliani (1781-1829)

//////////////////////////////////////////////////////////////////////////

p = pulgar = thumb
i = indice = index
m = medio = middle
a = anular = ring



[1]
E|-----------------------|-----------------------|--------0--------------|
B|-----------------------|--------------------0--|--1-----------1--------|
G|-----------------------|--2-----1-----2--------|--------------------2--|
D|--------------------2--|-----------------------|-----------------------|
A|-----------------------|--0--------------------|--0--------------------|
E|-----------------------|-----------------------|-----------------------|
    |     |     |     |     |     |     |     |     |     |     |     |      
R                     p     i     m     i     m     m     a     m     i     
                            p                       p                       

L                     2     3     1     3           1           1     2           


[4]
E|-----------------------|-----------------------|-----------------------|
B|--0-----3-----0--------|--------1--------------|--------------------0--|
G|--------------------1--|--2-----------2--------|--2-----1-----2--------|
D|-----------------------|--------------------2--|-----------------------|
A|-----------------------|--0--------------------|--0--------------------|
E|--0--------------------|-----------------------|-----------------------|
    |     |     |     |     |     |     |     |     |     |     |     |   
R   m     i     m     i     i     m     i     p     i     m     i     m     
    p                       p                       p                       

L   4           1     3     1     3     2           3     1     3           


[7]
E|--------0--------------|-----------------------|----------------------||
B|--1-----------1--------|--0-----3-----0--------|----------------------||
G|--------------------2--|--------------------1--|--2------------------*||
D|-----------------------|-----------------------|---------------------*||
A|--0--------------------|-----------------------|--0-------------------||
E|-----------------------|--0--------------------|----------------------||
    |     |     |     |     |     |     |     |     |     |     |     |          
R   m     a     m     i     m     i     m     i     i
    p                       p                       p

L   1           1     2           4           1     3


[10]
E|-----------------------|--3-----------1--------|--0-----------------0--|
B|-----------------------|-----------------------|--------------1--------|
G|--------------------0--|--------0-----------0--|--------0--------------|
D|-----------------------|--2-----------0--------|-----------------------|
A|-----------------------|-----------------------|--3--------------------|
E|-----------------------|-----------------------|-----------------------|
    |     |     |     |     |     |     |     |     |     |     |     |    
R                     i     a     i     a     i     a     i     m     a     
                            p           p           p                       

L                           4           1           3           1           
                            2                                               

[13]
E|-----------------------|--------------------0--|--3-----------1--------|
B|--3-----------0--------|--1-----------1--------|-----------------------|
G|--------0-----------0--|--------0--------------|--------0-----------0--|
D|--3-----------0--------|--2--------------------|--2-----------0--------|
A|-----------------------|-----------------------|-----------------------|
E|-----------------------|-----------------------|-----------------------|
    |     |     |     |     |     |     |     |     |     |     |     |   
R   m     i     m     i     m     i     m     a     a     i     a     i     
    p           p           p                       p           p           

L   4                       1           1           4           1           
    3                       2                       2                        

[16]
E|--0-----------------0--|-----------------------|----------------------||
B|--------------1--------|--3-----------0--------|--1-------------------||
G|--------0--------------|--------0-----------0--|---------------------*||
D|-----------------------|--3-----------0--------|---------------------*||
A|--3--------------------|-----------------------|--3-------------------||
E|-----------------------|-----------------------|----------------------||
    |     |     |     |     |     |     |     |     |     |     |     |     
R   a     i     m     a     m     i     m     i     m
    p                       p           p           p

L   3           1           4                       1    
                            3                       3       
Добавлено: 21.06.2012
Другие материалы по этой песне:

Страница создана 24.04.2012
http://primanota.ru/mauro-giuliani/ecossaise-chords.htm
Привет, Гость.
Предлагаем пройти революционный курс по гитаре.
Подарок от PrimaNota.Ru, забирай!