PrimaNota.ru - самый крупный в мире бесплатный архив песенных текстов, аккордов, табулатур и нот


Mastodon - This Mortal Soil - текст песни, таба, видео

Регистрация Запомнить меня
Войти через:  Facebook Google Twitter Vk Yandex Mail.ru

Mastodon - This Mortal Soil - текст песни, таба, видео

Печатать
Просмотров: 154
Song: This Mortal Soil
Band: Mastodon
Album: Blood Mountain
Tabbed by: Trevor Morgan
Email: captain_morgan1818@hotmail.com

Tuning: DGCFAD
Sorry but I don't have the intro down, only the chords, but you pretty much just outline 
chords to get it down.

e|--4-----------|--4------------|--------------|----------------|
B|--5-----------|--5------------|--9-----------|--9-------------|
G|--6-----------|--6------------|--9-----------|--9-------------|
D|--6-----------|--6------------|--9-----------|--9-------------|     2times
A|--4-----------|--4------------|--7-----------|--7-------------|
E|--------------|---------------|--------------|----------------|

e|--7-----------|--9------------|
B|--8-----------|--10-----------|
G|--7-----------|--9------------|
D|--9-----------|--11-----------| full part played 3 times total
A|--10----------|--12-----------|
E|--------------|---------------|

Verse Riff
e|--------------|---------------|--------------|-----------------|
B|--------------|---------------|--------------|-----------------|
G|--------------|---------------|--------------|-----------------|
D|----6---------|---6-----------|----6---------|---6-------------|
A|------4-5-6-4-|-----4-5-6-4-5-|------4-5-6-4-|-----4-5-6-0-4-5-|
E|--2-----------|-2-------------|--2-----------|-2---------------|  2 times

e|--------------|---------------|--------------|-----------------|
B|--------------|---------------|--------------|-----------------|
G|--------------|----------6----|--------------|-----------6-----|
D|----9---0-6-7-|----9-------7--|----9---0-6-7-|----9--------7---|
A|--0---7-------|--0---7-0------|--0---7-------|--0---7-0--------|
E|--------------|---------------|--------------|-----------------|
                                 On last time play alternate riff


e|--------------|-----------------|
B|--------------|-----------------|
G|--------------|-----------------|
D|-7--6--4--2-2-|-7-6-4-2-4/6\4-2-|
A|-7—-6--4--2-2-|-7-6-4-2-4/6\4-2-|
E|-5--4--2--0-0-|-5-4-2-0-2/4\2-0-|

For Verse riff play Riff 2 First
After Playing Verse Riff Again play riff 3

e|------------------|------------------|
B|------------------|------------------|
G|------------------|------------------|
D|--2---------------|--2---------------|
A|-4-4p2-2-4p2------|-4-4p2-2-4p2------|
E|------5-----5-2-2-|------5-----5-2-2-|

e|------------------|------------------|
B|------------------|------------------|
G|--4---------------|--4---------------|
D|-6-6p4-4-6p4------|-6-6p4-4-6p4------|
A|------7-----7-4-4-|------7-----7-4-4-|
E|------------------|------------------|

e|--------------------|--------------------|
B|--------------------|--------------------|
G|--------------------|--------------------|
D|--------------------|--------------------|
A|--2--------2--------|--2--------2--------|
E|-4-4p2p0h2—-4p2p0-0-|-4-4p2p0h2—-4p2p0-0-|


e|------------------|------------------|
B|------------------|------------------|
G|--4---------------|--4---------------|
D|-6-6p4-4-6p4------|-6-6p4-4-6p4------|
A|------7-----7-4-4-|------7-----7-4-4-| back to verse riff
E|------------------|------------------|


Riff 3
Gtr 1 and 2 play this
e|------------------------------------|
B|------------------------------------|
G|------------------------------------|
D|-------------2--4---6h7p6-4-6p4-2h4-|
A|-------2--4-------------------------|
E|-2--5-------------------------------|

Gtr 1
e|---------------------------------------|
B|---------------------------------------|
G|---------------------------------------|
D|---------------2--4-4--6h7p6-4-6p4-2h4-|
A|---------2--4--------------------------|
E|-x-2--5--------------------------------|

Gtr 2
e|---------------------------------------|
B|-----------------------4h5p4---4-------|
G|---------------4--6-6--------6---6-4h6-|
D|---------4--6--------------------------|
A|-x-4--7--------------------------------|
E|---------------------------------------|

Gtrs 1 and 2
e|-----------------|-----------------|-----------------------------------|--------------|
B|-----------------|-----------------|-----------------------------------|--------------|
G|-----------------|-7-7-7-7-7-7-7-7-|-----9------11--------12--------14-|--------------|
D|-0-0-0-0-0-0-0-0-|-----------------|-----------------------------------|--4-----------|
A|-----------------|-----------------|-7-7----9-9-----10-10-----12-12----|--4-----------|
E|-----------------|-----------------|-----------------------------------|--2-----------|

Play Riff 3 Twice

Chorus

Gtrs 1 and 2
e|------------|------------|-------------|--------------------|---------------------|
B|------------|------------|-------------|--------------------|---------------------|
G|------------|------------|-------------|--------------------|---------------------|
D|-x—-4--4--4-|-6--6--7--7-|-9-(9)--7--6-|-7—-(7)----2-(2)--2-|--4------------------|
A|-x--4--4--4-|-6--6--7--7-|-9—(9)--7--6-|-7—-(7)----2—(2)--2-|--4------------------|
E|-x--2--2--2-|-4--4--5--5-|-7—(7)--5--4-|-5--(5)----0-(0)--0-|--2------------------|

Gtr 1
e|-------------|-----------|-----------|--------------------|---------------------|
B|-------------|-----------|-----------|--------------------|---------------------|
G|-x--13-13-13-|-11-11-9-9-|-8--9--8---|--------------------|---------------------|
D|-x-----------|-----------|-----------|-7—-(7)----2-(2)--2-|--4------------------|
A|-x--11-11-11-|-9--9--7-7-|-6--7--6---|-7—-(7)----2—(2)--2-|--4------------------|
E|-------------|-----------|-----------|-5--(5)----0-(0)--0-|--2------------------|

Gtr 2
e|-------------|-----------|-----------|--------------------|---------------------|
B|-------------|-----------|-----------|--------------------|---------------------|
G|-------------|-----------|-----------|--------------------|---------------------|
D|-x--11-11-11-|-9--9--7-7-|-6--7--6---|-7—-(7)----2-(2)--2-|--4------------------|
A|-x--11-11-11-|-9--9--7-7-|-6--7--6---|-7—-(7)----2—(2)--2-|--4------------------|
E|-x--9--9--9--|-7--7--5-5-|-4--5--4---|-5--(5)----0-(0)--0-|--2------------------|
Chorus x2

Gtrs 1 and 2
e|---------|----------|---------|----------|---------|----------|
B|---------|----------|---------|----------|---------|----------|
G|---------|----------|---------|----------|---------|----------|
D|-4-4-4-4-|-2-2-4-x--|-4-4-4-4-|-2-2-4-x--|-4-4-x-x-|-4-4-x-x--|
A|-4-4-4-4-|-2-2-4-x--|-4-4-4-4-|-2-2-4-x--|-4-4-x-x-|-4-4-x-x--|
E|-2-2-2-2-|-0-0-2-x--|-2-2-2-2-|-0-0-2-x--|-2-2-x-x-|-2-2-x-x--|

e|---------|----------|---------|----------|---------|----------|
B|---------|----------|---------|----------|---------|----------|
G|---------|----------|---------|----------|---------|----------|  x2
D|-7-7-7-7-|-5-5-7-x--|-7-7-7-7-|-5-5-7-x--|-7-7-x-x-|-7-7-x-x--|
A|-7-7-7-7-|-5-5-7-x--|-7-7-7-7-|-5-5-7-x--|-7-7-x-x-|-7-7-x-x--|
E|-5-5-5-5-|-4-4-5-x--|-5-5-5-5-|-4-4-5-x--|-5-5-x-x-|-5-5-x-x--|

Gtrs 1 and 2
e|--------------|---------------|-------------|
B|--------------|---------------|-------------|
G|--------------|---------------|-------------|
D|--------------|---------------|-------------|
A|--------------|---------------|---------3-3-|
E|--5--7-8-8/10-|--8-7—8p7\5—-5-|--7p5\3---3--|

Gtr 1
e|-------------|----------------|-------------|
B|-------------|----------------|-------------|
G|-------------|----------------|---------2-2-|
D|--4--6-7-7/9-|--7-6-7p6\4---4-|--6p4\2---2--|
A|-------------|----------------|-------------|
E|-------------|----------------|-------------|

Gtr 2
e|--------------|---------------|-------------|
B|--------------|---------------|-------------|
G|--------------|---------------|-------------|
D|--------------|---------------|-------------|
A|--------------|---------------|---------3-3-|
E|--5--7-8-8/10-|--8-7—8p7\5—-5-|--7p5\3---3--|       play 2 times

Gtrs 1 and 2
e|---------|----------|---------|----------|---------|----------|
B|---------|----------|---------|----------|---------|----------|
G|---------|----------|---------|----------|---------|----------|
D|-4-4-4-4-|-2-2-4-x--|-4-4-4-4-|-2-2-4-x--|-4-4-x-x-|-4-4-x-x--|
A|-4-4-4-4-|-2-2-4-x--|-4-4-4-4-|-2-2-4-x--|-4-4-x-x-|-4-4-x-x--|
E|-2-2-2-2-|-0-0-2-x--|-2-2-2-2-|-0-0-2-x--|-2-2-x-x-|-2-2-x-x--|

e|---------|----------|---------|----------|---------|----------|
B|---------|----------|---------|----------|---------|----------|
G|---------|----------|---------|----------|---------|----------|          x2
D|-7-7-7-7-|-5-5-7-x--|-7-7-7-7-|-5-5-7-x--|-7-7-x-x-|-7-7-x-x--|
A|-7-7-7-7-|-5-5-7-x--|-7-7-7-7-|-5-5-7-x--|-7-7-x-x-|-7-7-x-x--|
E|-5-5-5-5-|-4-4-5-x--|-5-5-5-5-|-4-4-5-x--|-5-5-x-x-|-5-5-x-x--|


Chorus

Gtrs 1 and 2
e|------------|------------|-------------|--------------------|---------------------|
B|------------|------------|-------------|--------------------|---------------------|
G|------------|------------|-------------|--------------------|---------------------|
D|-x—-4--4--4-|-6--6--7--7-|-9-(9)--7--6-|-7—-(7)----2-(2)--2-|--4------------------|
A|-x--4--4--4-|-6--6--7--7-|-9—(9)--7--6-|-7—-(7)----2—(2)--2-|--4------------------|
E|-x--2--2--2-|-4--4--5--5-|-7—(7)--5--4-|-5--(5)----0-(0)--0-|--2------------------|

Gtr 1
e|-------------|-----------|-----------|--------------------|---------------------|
B|-------------|-----------|-----------|--------------------|---------------------|
G|-x--13-13-13-|-11-11-9-9-|-8--9--8---|--------------------|---------------------|
D|-x-----------|-----------|-----------|-7—-(7)----2-(2)--2-|--4------------------|
A|-x--11-11-11-|-9--9--7-7-|-6--7--6---|-7—-(7)----2—(2)--2-|--4------------------|
E|-------------|-----------|-----------|-5--(5)----0-(0)--0-|--2------------------|

Gtr 2
e|-------------|-----------|-----------|--------------------|---------------------|
B|-------------|-----------|-----------|--------------------|---------------------|
G|-------------|-----------|-----------|--------------------|---------------------|
D|-x--11-11-11-|-9--9--7-7-|-6--7--6---|-7—-(7)----2-(2)--2-|--4------------------|
A|-x--11-11-11-|-9--9--7-7-|-6--7--6---|-7—-(7)----2—(2)--2-|--4------------------|
E|-x--9--9--9--|-7--7--5-5-|-4--5--4---|-5--(5)----0-(0)--0-|--2------------------|
Chorus x1

Verse Riff
e|--------------|---------------|--------------|-----------------|
B|--------------|---------------|--------------|-----------------|
G|--------------|---------------|--------------|-----------------|
D|----6---------|---6-----------|----6---------|---6-------------|
A|------4-5-6-4-|-----4-5-6-4-5-|------4-5-6-4-|-----4-5-6-0-4-5-|
E|--2-----------|-2-------------|--2-----------|-2---------------|  2 times

e|--------------|---------------|--------------|-----------------|
B|--------------|---------------|--------------|-----------------|
G|--------------|----------6----|--------------|-----------6-----|
D|----9---0-6-7-|----9-------7--|----9---0-6-7-|----9--------7---|
A|--0---7-------|--0---7-0------|--0---7-------|--0---7-0--------|
E|--------------|---------------|--------------|-----------------|
                                 On last time plat alternate riff


e|--------------|-----------------|-----------------|
B|--------------|-----------------|-----------------|
G|--------------|-----------------|-----------------|
D|-7--6--4--2-2-|-7-6-4-2-4/6\4-2-|-4---------------|
A|-7—-6--4--2-2-|-7-6-4-2-4/6\4-2-|-4---------------|
E|-5--4--2--0-0-|-5-4-2-0-2/4\2-0-|-2---------------|

There you go, hope you enjoy it.  You can add in palm mutes whenever you feel its 
I just didn't feel like adding them on the tab.

| /  slide up
| \  slide down
| h  hammer-on
| p  pull-off
| ~  vibrato
| +  harmonic
| x  Mute note
Добавлено: 16.07.2012
Другие материалы по этой песне:

Страница создана 29.03.2012
http://primanota.ru/mastodon/this-mortal-soil-chords.htm
Привет, Гость.
Предлагаем пройти революционный курс по гитаре.
Подарок от PrimaNota.Ru, забирай!