PrimaNota.ru - самый крупный в мире бесплатный архив песенных текстов, аккордов, табулатур и нот


Mastodon - Where Strides The Behemoth - текст песни, таба, видео

Регистрация Запомнить меня
Войти через:  Facebook Google Twitter Vk Yandex Mail.ru

Mastodon - Where Strides The Behemoth - текст песни, таба, видео

Печатать
Просмотров: 100
Авторы музыки: Mastodon
Авторы текста: Mastodon
As recorded by Mastodon
                         (From the 2002 Album REMISSION)

Words and Music by Mastodon
Arranged by Woutjinho
Transcribed by Woutjinho & Hopkins-WFG

Yes I did steal this tab but there are no text versions of the tab so I thought I may aswell...

Gtr I (A G C F A D) - 'Guitar 1'
Gtr II (A G C F A D) - 'Guitar 2'

 Intro
  Q=149
  N.C.
 4/4                3/4
  Gtr I
   E E E E E E E E   E  E E E S S S S
|------------------|------------------|
|-/9p7p0-6p3p0-9p7p|=0--6p3p0-9p7p0---|
|------------------|------------------|
|------------------|------------------|
|------------------|------------------|
|------------------|------------------|
|
| Gtr II
|  W                 H.
|------------------|------------------|
|------------------|------------------|
|------------------|------------------|
|------------------|------------------|
|------------------|------------------|
|------------------|------------------|


   4/4
      E  E E  E  E E  E  E   E  E  E E  S  S E  S  S E  4x
||-------------------------|----------------------------||
||o--/9p=7p0--6p=3p0--9p=7p|=0--6p=3p0--9p=7p0--6p=3p0-o||
||-------------------------|----------------------------||
||-------------------------|----------------------------||
||o------------------------|---------------------------o||
||-------------------------|----------------------------||
|
|     E  E E  E  E E  E  E   E  E  E E  S  S E  S  S E  4x
||-------------------------|----------------------------||
||o-/21p19p0-18p15p0-21p19p|=0-18p15p0-21p19p0-18p15p0-o||
||-------------------------|----------------------------||
||-------------------------|----------------------------||
||o------------------------|---------------------------o||
||-------------------------|----------------------------||


   Pre-Verse
    Gtrs I, II
    PM------------------------------------------|
    S S E E S S E E S S E   E S S E E S S E S S E  4x
||------------------------|------------------------||
||o-----------------------|-----------------------o||
||------------------------|------------------------||
||------------------------|------------------------||
||o-----------------------|-----------------------o||
||--9-7-0-0-6-3-0-0-9-7-0-|-0-6-3-0-0-9-7-0-6-3-0--||


      B
      S S E E S S E E S S E   E S S E E S S E S S E  4x
|-||------------------------|------------------------||
|-||o-----------------------|-----------------------o||
|-||------------------------|------------------------||
|-||------------------------|------------------------||
|-||o-2-2-2-2-2-2-2-2-2-2-2-|-2-2-2-2-2-2-2-2-2-2-2-o||
|-||--0-0-0-0-0-0-0-0-0-0-0-|-0-0-0-0-0-0-0-0-0-0-0--||


 Verse
  Q=172
  $
                                     5/4
  PM--|             PM        PM--------|
  E E E E  q   q    E E q  q  E S S   E E E E  E E  E E   Q
|-----------------|-----------------|--------------------------|
|-----------------|-----------------|--------------------------|
|-----------------|-----------------|-----9-7------------------|
|-------9-10--10--|---8-9--9--------|---------10-9-------------|
|-----------------|-----------------|--------------10-7-[10]---|
|-0-0-0-----------|-0---------0-0-0-|-0-0----------------------|


 4/4                                 5/4
  Gtr I
  PM--|             PM        PM--------|
  E E E E  q   q    E E q  q  E S S   E E  E  E  E  E  E E   Q
|-----------------|-----------------|----------------------------|
|-----------------|-----------------|----------------------------|
|-----------------|-----------------|------9--7------------------|
|-------9-10--10--|---8-9--9--------|-----------10--9------------|
|-----------------|-----------------|-----------------10-7-[10]--|
|-0-0-0-----------|-0---------0-0-0-|-0-0------------------------|
|
| Gtr II
| PM--|             PM        PM--------|
| E E E E  q   q    E E q  q  E S S   E E  E  E  E  E  E E   Q
|-----------------|-----------------|-----12-10------------------|
|-----------------|-----------------|-----------13-12------------|
|-----------------|-----------------|-----------------12-9--12---|
|-------9-10--10--|---8-9--9--------|----------------------------|
|-----------------|-----------------|----------------------------|
|-0-0-0-----------|-0---------0-0-0-|-0-0------------------------|


 4/4                                 5/4
  PM--|             PM        PM--------|
  E E E E  q   q    E E q  q  E S S   E E  E  E  E  E  E E   Q
|-----------------|-----------------|----------------------------|
|-----------------|-----------------|----------------------------|
|-----------------|-----------------|------9--7------------------|
|-------9-10--10--|---8-9--9--------|-----------10--9------------|
|-----------------|-----------------|-----------------10-7-[10]--|
|-0-0-0-----------|-0---------0-0-0-|-0-0------------------------|
|
| PM--|             PM        PM--------|
| E E E E  q   q    E E q  q  E S S   E E  E  E  E  E  E E   Q
|-----------------|-----------------|-----12-10------------------|
|-----------------|-----------------|-----------13-12------------|
|-------9-10--10--|---8-9--9--------|-----------------12-9--12---|
|-----------------|-----------------|----------------------------|
|-----------------|-----------------|----------------------------|
|-0-0-0-----------|-0---------0-0-0-|-0-0------------------------|


 4/4                                 5/4
  PM--|             PM        PM--------|
  E E E E  q   q    E E q  q  E S S   E E  E  E  E  E  E E   Q
|-----------------|-----------------|----------------------------|
|-----------------|-----------------|----------------------------|
|-----------------|-----------------|------9--7------------------|
|-------9-10--10--|---8-9--9--------|-----------10--9------------|
|-----------------|-----------------|-----------------10-7-[10]--|
|-0-0-0-----------|-0---------0-0-0-|-0-0------------------------|
|
| PM--|             PM        PM--------|
| E E E E  q   q    E E q  q  E S S   E E  E  E  E  E  E E   Q
|-----------------|-----------------|-----12-10------------------|
|-----------------|-----------------|-----------13-12------------|
|-------9-10--10--|---8-9--9--------|-----------------12-9--12---|
|-----------------|-----------------|----------------------------|
|-----------------|-----------------|----------------------------|
|-0-0-0-----------|-0---------0-0-0-|-0-0------------------------|


   Chorus
   4/4
                               PM|
    Q.    Q.   Q    +E   Q.    E  E  Q
||----------------|---------------------|
||o---------------|---------------------|
||--4----10----4--|-(4)-10----10-10-10--|
||--3-----9----3--|-(3)--9-----9--9--9--|
||o-2-----8----2--|-(2)--8-----8--8--8--|
||----------------|---------------------|


                              D.S.
                             PM|
  Q.    Q.   Q    +E   Q.    E  E  Q
|---------------|-----------------------||
|---------------|----------------------o||
|-4----12----4--|-(4)-12----12-12-12----||
|-3----11----3--|-(3)-11----11-11-11----||
|-2----10----2--|-(2)-10----10-10-10---o||
|---------------|-----------------------||


   Interlude
    Q=149
   4/4
    Gtr I
      E  E E  E  E E  E  E   E  E  E E  S  S E  S  S E  4x W          W
||-------------------------|----------------------------||----------|------|
||o--/9p=7p0--6p=3p0--9p=7p|=0--6p=3p0--9p=7p0--6p=3p0-o||----------|------|
||-------------------------|----------------------------||----------|------|
||-------------------------|----------------------------||----------|------|
||o------------------------|---------------------------o||----------|------|
||-------------------------|----------------------------||----------|------|
|
|   Gtr II
|     E  E E  E  E E  E  E   E  E  E E  S  S E  S  S E  4x W          W
||-------------------------|----------------------------||----------|------|
||o-/21p19p0-18p15p0-21p19p|=0-18p15p0-21p19p0-18p15p0-o||----------|------|
||-------------------------|----------------------------||----------|------|
||-------------------------|----------------------------||----------|------|
||o------------------------|---------------------------o||----------|------|
||-------------------------|----------------------------||----------|------|


  Gtrs I, II
  W          W          W          W          W          H    H
|----------|----------|----------|----------|----------|------------|
|----------|----------|----------|----------|----------|------------|
|----------|----------|----------|----------|----------|------------|
|----------|----------|----------|----------|----------|------------|
|----------|----------|----------|----------|----------|------x\----|
|----------|----------|----------|----------|----------|------x\----|


   Verse
    Q=172
                                                  3/4
    Gtrs I, II
       PM   PM                        PM
    Q  E Q  E E E   Q  E E Q  Q    Q  E Q.   E E   Q  E E Q
||----------------|--------------|------0--------|------------|
||o---------------|--------------|------0--------|------------|
||----------------|--------------|---------------|------------|
||----------------|--------------|---------------|------------|
||o-2----5----7-8-|-5--7-8-5--3--|-2---------5-3-|-3--5-3-3---|
||--0--0-3--0-5-6-|-3--5-6-3--1--|-0--0------3-1-|-1--3-1-1---|


 4/4                                            5/4
     PM   PM                        PM                           ~~~~
  Q  E Q  E E E   Q  E E Q  Q    Q  E Q.   E E   Q  E E Q   Q    Q      3x
|---------------|--------------|------0--------|------------------------||
|---------------|--------------|------0--------|-----------------------o||
|---------------|--------------|---------------|------------------------||
|---------------|--------------|---------------|-----------[5]--[7]\----||
|-2----5----7-8-|-5--7-8-5--3--|-2---------5-3-|-3--5-3-3--------------o||
|-0--0-3--0-5-6-|-3--5-6-3--1--|-0--0------3-1-|-1--3-1-1---------------||


   Bridge
    Q=149
   4/4
    PM---------------------------------------------
    S S E E S S E E S S E   E S S E E S S E S S E
||------------------------|-----------------------|
||o-----------------------|-----------------------|
||------------------------|-----------------------|
||------------------------|-----------------------|
||o-----------------------|-----------------------|
||--9-7-0-0-6-3-0-0-9-7-0-|-0-6-3-0-0-9-7-0-6-3-0-|


 ---------------------------------------------|
  S S E E S S E E S S E   E S S E E S S E S S E
|-----------------------|------------------------||
|-----------------------|-----------------------o||
|-----------------------|------------------------||
|-----------------------|------------------------||
|-----------------------|-----------------------o||
|-9-7-0-0-6-3-0-0-9-7-0-|-0-6-3-0-0-9-7-0-6-3-0--||


    PM-------------------------------------------------
    S S E S S E S S E S S E   S S E S S E S S E S S E
||--------------------------|-------------------------|
||o-------------------------|-------------------------|
||--------------------------|-------------------------|
||--------------------------|-------------------------|
||o-------------------------|-------------------------|
||--9-7-0-0-0-0-6-3-0-0-0-0-|-9-7-0-0-0-0-6-3-0-0-0-0-|


 -------------------------------------------------|
  S S E S S E S S E S S E   S S E S S E S S E S S E
|-------------------------|---------------------------||
|-------------------------|--------------------------o||
|-------------------------|---------------------------||
|-------------------------|---------------------------||
|-------------------------|--------------------------o||
|-9-7-0-0-0-0-6-3-0-0-0-0-|-9-7-0-0-0-0-6-3-0-0-0-0---||


 Outro
  Q=172
  Gtr I
  PM--|             PM        PM--------|
  E E E E  q   q    E E q  q  E S S   E E  E  E  E  E  E E     Q   q  H
|-----------------|-----------------|----------------------|---------------*|
|-----------------|-----------------|----------------------|---------------*|
|-----------------|-----------------|------9--7------------|---------------*|
|-------9-10--10--|---8-9--9--------|-----------10--9------|---------------*|
|-----------------|-----------------|-----------------10-7-|-[10]--2-------*|
|-0-0-0-----------|-0---------0-0-0-|-0-0------------------|-------0-------*|
|
| Gtr II
| PM--|             PM        PM--------|
| E E E E  q   q    E E q  q  E S S   E E  E  E  E  E  E E     Q   q  H
|-----------------|-----------------|-----12-10------------|---------------*|
|-----------------|-----------------|-----------13-12------|---------------*|
|-------9-10--10--|---8-9--9--------|-----------------12-9-|--12-----------*|
|-----------------|-----------------|----------------------|---------------*|
|-----------------|-----------------|----------------------|-------2-------*|
|-0-0-0-----------|-0---------0-0-0-|-0-0------------------|-------0-------*|


Duration Legend
---------------
W - whole; H - half; Q - quarter; E - 8th; S - 16th; T - 32nd; X - 64th; a - acciaccatura
+ - note tied to previous; . - note dotted; .. - note double dotted
Uncapitalized letters represent notes that are staccato (1/2 duration)
Irregular groupings are notated above the duration line
Duration letters will always appear directly above the note/fret number it represents the
duration for.  Duration letters with no fret number below them represent rests.  Multi-
bar rests are notated in the form Wxn, where n is the number of bars to rest for.  Low
melody durations appear below the staff

Tablature Legend
----------------
 h   - hammer-on
 p   - pull-off
 b   - bend
 pb  - pre-bend
 r   - bend release (if no number after the r, then release immediately)
 /\  - slide into or out of (from/to "nowhere")
 s   - legato slide
 S   - shift slide
  - natural harmonic
[n]  - artificial harmonic
n(n) - tapped harmonic
 ~   - vibrato
 tr  - trill
 T   - tap
 TP  - trem. picking
 PM  - palm muting
\n/  - tremolo bar dip; n = amount to dip
 \n  - tremolo bar down
 n/  - tremolo bar up
/n\  - tremolo bar inverted dip
 =   - hold bend; also acts as connecting device for hammers/pulls
 <>  - volume swell (louder/softer)
 x   - on rhythm slash represents muted slash
 o   - on rhythm slash represents single note slash

Misc Legend
-----------
 |  - bar
||  - double bar
||o - repeat start
o|| - repeat end
*|  - double bar (ending)
 :  - bar (freetime)
 $  - Segno
 &  - Coda
Tempo markers -  = BPM(8/16=s8/s16), where s8 = swing 8ths, s16 = swing 16ths


Добавлено: 16.05.2012
Другие материалы по этой песне:

Страница создана 09.03.2012
http://primanota.ru/mastodon/where-strides-the-behemoth-chords.htm
Привет, Гость.
Предлагаем пройти революционный курс по гитаре.
Подарок от PrimaNota.Ru, забирай!