PrimaNota.ru - самый крупный в мире бесплатный архив песенных текстов, аккордов, табулатур и нот


Mark Tremonti - Radical Change - таба, видео

Регистрация Запомнить меня
Войти через:  Facebook Google Twitter Vk Yandex Mail.ru

Mark Tremonti - Radical Change - таба, видео

Печатать
Просмотров: 86
Уроки эстрадного вокала в Санкт-Петербурге
Авторы музыки: Mark Tremonti
Авторы текста: Mark Tremonti
INTRO (x2) using tremolo picking always

D#|-------------------------------------------------------------------------------
A#|-------------------------------------------------------------------------------
F#|-------------------------------------------------------------------------------
C#|-------------------------------------------------------------------------------
G#|-------------------------------------------------------------------------------
C#|-13-12-0-0-12-12-15-15-13-13-12-12-13-12-0-0-12-12-15-15-13-13-12-12-13-12-0-0-

D#|------------------------------------------------------------------------------
A#|------------------------------------------------------------------------------
F#|------------------------------------------------------------------------------
C#|------------------------------------------------------------------------------
G#|------------------------------------------------------------------------------
C#|-12-12-15-15-13-13-12-12-13-13-13-13-13-13-12-12-12-12-12-12-10-10-10-10------


Verse:

D#|-----------------------------------------------------------------------------------------
A#|-----------------------------------------------------------------------------------------
F#|-----------------------------------------------------------------------------------------
C#|-1---1-------1---1-------5---5-------5---5-------3---3-------3---3-------3---3-----------
G#|-1---1-------1---1-------5---5-------5---5-------3---3-------3---3-------3---3-----------
C#|-1---1---1---1---1---1---5---5---5---5---5---5---3---3---3---3---3---3---3---3---3-5-7-3-
            +           +           +           +           +           +           + + + +


D#|----------------------------------------------------------------------------------------
A#|----------------------------------------------------------------------------------------
F#|----------------------------------------------------------------------------------------
C#|-1---1-------1---1-------5---5-------5---5-------3---3-------3---3-------3---3----------
G#|-1---1-------1---1-------5---5-------5---5-------3---3-------3---3-------3---3----------
C#|-1---1---1---1---1---1---5---5---5---5---5---5---3---3---3---3---3---3---3---3---3---1--
           +           +           +           +           +           +           +   +



guitar 1 pre chours

D#|----------------------------------------------------------------------------------------
A#|----------------------------------------------------------------------------------------
F#|----------------------------------------------------------------------------------------
C#|-0---0-------0---0-------0---0-------0---0-------0---0-------0---0-------0---0----------
G#|-0---0-------0---0-------0---0-------0---0-------0---0-------0---0-------0---0----------
C#|-0---0-------0---0-------0---0-------0---0-------0---0-------0---0-------0---0----------


guitar 2(using tremolo picking) pre chours

D#|--------------------------------------------------------------------------------------
A#|--------------------------------------------------------------------------------------
F#|--------------------------------------------------------------------------------------
C#|-0-0-0-0--3-3-3-3-3-3--8-8-8-8-8--7-7-7-7-7----0-0-0-0-3-3-3-3-3--8-8-8--6-6-6--7-7-7-
G#|--------------------------------------------------------------------------------------
C#|--------------------------------------------------------------------------------------


Chours

D#|----------------------------------------------------------
A#|----------------------------------------------------------
F#|----------------------------------------------------------
C#|-8---10------3---3-------5---5-------11-------------------
G#|-8---8-------3---3-------5---5-------x--------------------
C#|-8---8-------3---3-------5---5-------9--------------------

D#|----------------------------------------------------------
A#|----------------------------------------------------------
F#|------------------------------------7-----8---------------
C#|-8---10-----3---3-------5---5-------7-----8---------------
G#|-8---8------3---3-------5---5-------5-----6---------------
C#|-8---8------3---3-------5---5-----------------------------


Intro

Verse

Chours


Breakdown

D#|---------------------------------
A#|---------------------------------
F#|---------7--------------------8--
C#|---7--8----------------7---8-----
G#|-5------------------5------------
C#|---------------------------------


solo 1 (Unavailable)Sorry!

Intro

Chours

Solo 2 (Unavailable)Sorry!



************************************
legend(keys):

+ = tremolo picking and palm mute

| /   slide up
| \   slide down
| h   hammer-on
| p   pull-off
| ~   vibrato
| +   harmonic
| x   Mute note
| b   Bend
| pb  Pre-bend
| br  Bend release
| pbr Pre-bend release
| brb Bend release bend

************************************

Добавлено: 02.10.2015
Другие материалы по этой песне:
  • Аккорды и текст

Страница создана 02.10.2015
http://primanota.ru/mark-tremonti/radical-change-chords.htm
Привет, Гость.
Предлагаем пройти революционный курс по гитаре.
Подарок от PrimaNota.Ru, забирай!